top separator

Home

Forum

What's New

Submit a Tab

FAQ

Links

Contact Us

Link to Us

MuSpy.com

MetalTabs.com logo

Bands

0-9

A

B

C

D

E

F

G

H

I

J

K

L

M

N

O

P

Q

R

S

T

U

V

W

X

Y

Z

Search

What

Where
 

Illdisposed - "The Winter Of Our Discontempt" Guitar Tab

Plain Text Version
More Illdisposed Tabs

Hits: 2506
Updated: 2004-03-07 03:10:06

 

By:

Daniil

sendpm.gif

email.gif

Important note
This tab is available online because we obtained explicit permission from Illdisposed or their label.


#----------------------------------PLEASE NOTE---------------------------------#
#This file is the author's own work and represents their interpretation of the #
#song. You may only use this file for private study, scholarship, or research. #
#Unless specified otherwise, this is NOT an official tab from the band members.#
#------------------------------------------------------------------------------#

  Visit MetalTabs.com for more metal tablature
  
ILLDISPOSED-The Winter Of Our Discontempt
Four Depressive Seasons-1993
Transcribed by Daniil Laletin
e-mail: dlaletin@mail.ru
version 1.0 December 2003

All corrections are welcome.

 " - tremolo
 / - slide down
 \ - slide up
 . - palm mute
 ~ - long sound
 x - rest


Riff 1a
|---------------------------------|
|---------------------------------|
|---------------------------------|
|-2----2-----1----2----2-----1--0-|
|-2----2-3-2-1----2----2-3-2-1--0-|
|-0------3-2------0------3-2------|


Riff 1b
|---------------------------------|
|---------------------------------|
|---------------------------------|
|-2----2-----1----2----2-----1--0-|
|-2----2-3-2-1----2----2-3-2-1--0-|
|-0------3-2------0------3-2------|
           .               .


Fill 1
|-------------------------------|
|-------------------------------|
|-------------------------------|
|-------------------------------|
|-222-222x----2222-2222x-----2x-|
|-000-000x----0000-0000x-----0x-|



Riff 2 - originally played by two guitars
|----------------------------------------------------|
|----------------------------------------------------|
|----------------------------------------------------|
|------------------5-4---------------------------4-5-|
|--------3---------7-5---------3-----------------5-7-|
|-000000-1--000000-----0-000-0-1-0-0-0-0-000-000-----|



Riff 3
|----------------------------------------------|
|----------------------------------------------|
|----------------------------------------------|
|----------------------------------------------|
|-----------------2222--------1111111111111111-|
|-0000000000000000----33332222-----------------|

|----------------------------------------------|
|----------------------------------------------|
|----------------------------------------------|
|----------------------------------------------|
|-----------------2222--------1111111100000000-|
|-0000000000000000----33332222-----------------|

Riff 4
|------------------------------------------------|
|------------------------------------------------|
|-/4--------/5--------/4--------5-55-5-55-5-55-5-|
|-/2--2--2--/3--3--3--/2--2--2--3-33-3-33-3-33-3-|
|-----2--2------3--3------2--2-------------------|
|------------------------------------------------|



Riff 5
|------------------------------------------------------------------|
|------------------------------------------------------------------|
|------------------------------------------------------------------|
|-----------------------------2h3-----------------33332222----2222-|
|-------------------------2-3-----------------------------3333-----|
|-3-1-0-0-3-1-0-0-3-1-0-0---------3-1-0-0-3-1-0-0------------------|

|------------------------------------------------------------------|
|------------------------------------------------------------------|
|------------------------------------------------------------------|
|-----------------------------2h3-----------------22223333----2222-|
|-------------------------2-3-----------------------------3333-----|
|-3-1-0-0-3-1-0-0-3-1-0-0---------3-1-0-0-3-1-0-0------------------|


Fill 2
|------------------|
|------------------|
|------------------|
|------------------|
|-22223333----2222-|
|---------3333-----|


Riff 6
|-------------------------------------------------------|
|-------------------------------------------------------|
|-------------------------------------------------------|
|---------------------2--2-3---------------------3--3-2-|
|---------4p3---------2--2-3---------4p3---------3--3-2-|
|-0-0-1-3-----3-1-0-0--------0-0-1-3-----3-1-0-0--------|



Riff 7
|-------------------------------------------------|
|-------------------------------------------------|
|-------------------------------------------------|
|-------------------------------------------------|
|-44444444444444444777777444444444444444444777777-|
|-22222222222222222555555222222222222222222555555-|
  ...............................................

|-------------------------------------------------|
|-------------------------------------------------|
|-------------------------------------------------|
|-------------------------------------------------|
|-4-4-4-4-4-4-4-4-4-7-7-7-44444444444444444477777-|
|-2-2-2-2-2-2-2-2-2-5-5-5-22222222222222222255555-|
                          .......................

|----------------------------|
|----------------------------|
|----------------------------|
|----------------------------|
|-77777777777777777101010-4x-|
|-55555555555555555888888-2x-|
  .......................



Riff 8                             Riff 9
|-----------------------------|   |-----------------------|
|-----------------------------|   |-----------------------|
|-----------------------------|   |-----------------------|
|-5---4----------5--------4---|   |-2-----------5-5-4--5x-|
|-3---2----2-----3--------2-2-|   |-0----5--3---3-2-2--3x-|
|----------0----------------0-|   |------3--1-------------|


Fill 3
|-------------------------|
|-------------------------|
|-------------------------|
|-------------------------|
|-22---222222------2---22-|
|-00---000000------0---00-|

  Visit MetalTabs.com for more metal tablature

bottom separator

Contact Us | Privacy Policy | Disclaimer | Legal Notice
Copyright © 2001-2014 MetalTabs.com. All Rights Reserved.