top separator

Home

Forum

What's New

Submit a Tab

FAQ

Links

Contact Us

Link to Us

MetalTabs.com logo

Bands

0-9

A

B

C

D

E

F

G

H

I

J

K

L

M

N

O

P

Q

R

S

T

U

V

W

X

Y

Z

Search

What

Where
 

Illdisposed - "Reversed" Guitar Tab

Plain Text Version
More Illdisposed Tabs

Hits: 3117
Rated: 1.00 out of 5 (1 vote)
Updated: 2004-03-07 03:09:41

 

By:

Daniil

sendpm.gif

email.gif

Important note
This tab is available online because we obtained explicit permission from Illdisposed or their label.


#----------------------------------PLEASE NOTE---------------------------------#
#This file is the author's own work and represents their interpretation of the #
#song. You may only use this file for private study, scholarship, or research. #
#Unless specified otherwise, this is NOT an official tab from the band members.#
#------------------------------------------------------------------------------#

  Visit MetalTabs.com for more metal tablature
  
ILLDISPOSED-Reversed
Four Depressive Seasons-1993
Transcribed by Daniil Laletin
e-mail: dlaletin@mail.ru
version 1.0 December 2003

All corrections are welcome.

 " - tremolo
 / - slide down
 \ - slide up
 . - palm mute
 ~ - long sound
 x - rest


Intro
|---------------------------------|
|---------------------------------|
|---------------------------------|
|-5-3-2-3-2---2---2---------------|
|-----------5---5---5-3-5-3-2-3-2-|
|---------------------------------|


Riff 1
|---------------------------------|
|---------------------------------|
|---------------------------------|
|-----------------------------5-4-|
|-2-----2-2-2-2-2-3-3-3-3-5-3-3-2-|
|-0-000-0-0-0-0-0-1-1-1-1-3-1-----|
        . . . . . . . . . . .

|---------------------------------|
|---------------------------------|
|---------------------------------|
|---------------------------------|
|-2-----2-2-2-2-2-----------------|
|-0-000-0-0-0-0-0-111111111111111-|
        . . . . .


Riff 2
|----------------------------------|
|----------------------------------|
|----------------------------------|
|----------------------------------|
|-------------1111--------22221111-|
|-000033332222----00003333---------|



Riff 3
|------------------------|
|------------------------|
|------------------------|
|------------------------|
|-2--6--4--5--2--6--4--5-|
|-0--4--2--3--0--4--2--3-|



Riff 4
|---------------------------------|
|---------------------------------|
|---------------------------------|
|-----------------------------5-4-|
|-2-222-2-2-2-2-2-3-3-3-3-5-3-3-2-|
|-0-000-0-0-0-0-0-1-1-1-1-3-1-----|
        . . . . . . . . . . .

|-----------------|-----------------|
|-----------------|-----------------|
|-----------------|-----------------|
|-----------------|-5-3-2-3-2---2---|
|-2-222-2-2-2-2-2-|-----------5---5-|
|-0-000-0-0-0-0-0-|-----------------|
        . . . . .   (at last time full
                     intro must be played)



Riff 5
|------------------------|
|------------------------|
|------------------------|
|----6--4--5-----6--4--5-|
|-2--4--2--3--2--4--2--3-|
|-0--4--2--3--0--4--2--3-|



Riff 6
|----------------------------------|
|----------------------------------|
|----------------------------------|
|----------------------------------|
|---------55554444----5555---------|
|-22222222--------2222----33334444-|



Riff 7
|----------------------------------|
|----------------------------------|
|----------------------------------|
|----------------------------------|
|---------55554444--------55554444-|
|-22222222--------22222222---------|

|----------------------------------|
|----------------------------------|
|----------------------------------|
|----------------------------------|
|---------55554444--------44444444-|
|-00000000--------00000000---------|



Riff 8a
|--------------------------------------------------------------|
|--------------------------------------------------------------|
|--------------------------------------------------------------|
|--------------------------------------------------------------|
|-5\4---5\4---5\4-2---------------5\4---5\4---5\4-555555555555-|
|-3\2-0-3\2-0-3\2-0-000-000-000-0-3\2-0-3\2-0-3\2--------------|

|--------------------------------------------------------------|
|--------------------------------------------------------------|
|--------------------------------------------------------------|
|--------------------------------------------------------------|
|-5\4---5\4---5\4-2---------------5\4---5\4---5\4-666666666666-|
|-3\2-0-3\2-0-3\2-0-000-000-000-0-3\2-0-3\2-0-3\2--------------|


Riff 8b
|-------------------------------------------------------------|
|-------------------------------------------------------------|
|-------------------------------------------------------------|
|-------------------------------------------------------------|
|-5\4---5\4---5\4----------------5\4---5\4---5\4-555555555555-|
|-3\2-0-3\2-0-3\2-00000000000000-3\2-0-3\2-0-3\2--------------|

|-------------------------------------------------------------|
|-------------------------------------------------------------|
|-------------------------------------------------------------|
|-------------------------------------------------------------|
|-5\4---5\4---5\4----------------5\4---5\4---5\4-666666666666-|
|-3\2-0-3\2-0-3\2-00000000000000-3\2-0-3\2-0-3\2--------------|



Riff 9a
|----------------------------------------------------------|
|----------------------------------------------------------|
|----------------------------------------------------------|
|-3-333-3333-3------------------------------6-666-66-------|gtr 1
|-1-111-1111-1-4-444-4444-4-3x--------------4-444-44-6-666-|
|--------------2-222-2222-2-1x-----------------------4-444-|
|
|----------------------------------------------------------|
|----------------------------------------------------------|
|----------------------------------------------------------|
|------------3------------------------------6-666-66-------|gtr 2
|------------1-4------------3x--------------4-444-44-6-666-|
|--------------2------------1x-----------------------4-444-|



Riff 9b
|----------------------------------------------------------|
|----------------------------------------------------------|
|----------------------------------------------------------|
|-3-333-3333-3---------------------------6-666-66----------|
|-1-111-1111-1-4-444-4444-4-3-333-3333-3-4-444-44-6-666-66-|
|--------------2-222-2222-2-1-111-1111-1----------4-444-44-|



Riff 10
|---------------------------------------------------|
|---------------------------------------------------|
|---------------------------------------------------|
|-5-55-5-55-5-----------------------8-8-8-8---------|
|-3-33-3-33-3-6-66-6-66-6-5-55-5-55-6-6-6-6-8-8-8-8-|
|-------------4-44-4-44-4-3-33-3-33---------6-6-6-6-|



Riff 11
|---------------------|
|---------------------|
|---------------------|
|-3--------------6----|
|-1----4----3----4--6-|
|------2----1-------4-|


Riff 12a
|--------------------------------------------------------------|
|--------------------------------------------------------------|
|--------------------------------------------------------------|
|---------2------------------------------5----3333333355555555-|
|-00000000-0000-0000222233332222-33333333-3333-----------------|
|--------------------------------------------------------------|

|-------------------------------------------------|
|-------------------------------------------------|
|-------------------------------------------------|
|-------------------------------------------------|
|---------5----5----5-------------6----6----6-----|
|-33333333-3333-3333-3333-44444444-4444-4444-4444-|



Riff 12b
|--------------------------------------------------------------|
|--------------------------------------------------------------|
|--------------------------------------------------------------|
|---------2------------------------------5----3333333355555555-|
|-00000000-0000-0000222233332222-33333333-3333-----------------|
|--------------------------------------------------------------|

|-----------------------------------------------------------------|
|-----------------------------------------------------------------|
|-----------------------------------------------------------------|
|---------5-------5-------5---------------6-------6-------6-------|
|---------5-------5-------5---------------6-------6-------6-------|
|-3-3-3-3-3-3-3-3-3-3-3-3-3-3-3-3-4-4-4-4-4-4-4-4-4-4-4-4-4-4-4-4-|



Riff 13
|-----------------------------------|
|-----------------------------------|
|-----------------------------------|
|-----------------------6p4-4-4p2-2-|gtr 1
|-4-------------2-------------------|
|-2-------------0-------------------|
|
|-----------------------------------|
|-----------------------------------|
|-----------------------------------|
|----6-7----6-7----6-7--6p4-4-6~----|gtr 2
|-----------------------------------|
|-22-----22-----00------------------|

Play riff 13 two times, then another two times with fill 1

Fill 1
|----------------------------------------------------|
|----------------------------------------------------|
|----------------------------------------------------|
|-6h7-7-6h7-66-6h7-7-6h7-66-6h7-7-6h7-66-9p7-7-7p6-6-|
|----------------------------------------------------|
|----------------------------------------------------|



Riff 14a
|--------------------------------|
|--------------------------------|
|--------------------------------|
|--------------------------------|
|---------5555--------55---------|
|-22222222----22222222--33334444-|


Riff 14b                                                 1     2
|-------------------------------------------------------|-----|---|
|-------------------------------------------------------|-----|---|
|-------------------------------------------------------|-----|---|
|-------------------------------------------------------|-----|---|
|---------5555--------55----------------5555--------5555|4444-|4x-|
|-22222222----22222222--3333444400000000----00000000----|-----|---|

  Visit MetalTabs.com for more metal tablature

bottom separator

Contact Us | Privacy Policy | Disclaimer | Legal Notice
Copyright © 2001-2014 MetalTabs.com. All Rights Reserved.