top separator

Home

Forum

What's New

Submit a Tab

FAQ

Links

Contact Us

Link to Us

MuSpy.com

MetalTabs.com logo

Bands

0-9

A

B

C

D

E

F

G

H

I

J

K

L

M

N

O

P

Q

R

S

T

U

V

W

X

Y

Z

Search

What

Where
 

Illdisposed - "Inherit The Wind" Guitar Tab

Plain Text Version
More Illdisposed Tabs

Hits: 2700
Updated: 2004-03-07 03:09:14

 

By:

Daniil

sendpm.gif

email.gif

Important note
This tab is available online because we obtained explicit permission from Illdisposed or their label.


#----------------------------------PLEASE NOTE---------------------------------#
#This file is the author's own work and represents their interpretation of the #
#song. You may only use this file for private study, scholarship, or research. #
#Unless specified otherwise, this is NOT an official tab from the band members.#
#------------------------------------------------------------------------------#

  Visit MetalTabs.com for more metal tablature
  
ILLDISPOSED-Inherit The Wind
Four Depressive Seasons-1993
Transcribed by Daniil Laletin
e-mail: dlaletin@mail.ru
version 1.0 December 2003

All corrections are welcome.

 " - tremolo
 / - slide down
 \ - slide up
 . - palm mute
 ~ - long sound
 x - rest



Riff 1
|-------------------------------------------------|
|-------------------------------------------------|
|-------------------------------------------------|
|-4-------------4-3---3-4-3-------------3-2---2-3-|
|-2-----------3-----3-----1-----------2-----2-----|
|-------------------------------------------------|
|
|-------------------------------------------------|
|-------------------------------------------------|
|-------------------------------------------------|
|---3-2---2-3-5-------------2-1---1-2-4-----------|
|-2-----2-----3-----------1-----1-----2-----------|
|-------------------------------------------------|


Riff 2
|-------------------------------------------------|
|-------------------------------------------------|
|---3-2---2-3-------------------------------------|
|-2-----2-----------------------------------------|
|----------------3-2---2-3----3-2---2----3-2----3-|
|--------------2-----2------2-----2----2------2---|
|
|-------------------------------------------------|
|-------------------------------------------------|
|-------------------------------------------------|
|-------------------------------------------------|
|---3-2---2-3----3-2---2-3----3-2---2----3-2----3-|
|-2-----2------2-----2------2-----2----2------2---|


Fill 1
|-------------------------|
|-------------------------|
|-------------------------|
|-------------------------|
|-2x-22x-22x-2x-2x-22x-2x-|
|-0x-00x-00x-0x-0x-00x-0x-|


Riff 3
|------------------------------------------|
|------------------------------------------|
|------------------3-----------------------|
|--------------2-3---3---------------------|
|----------------------------------3-5-3-2-|
|-0-000-000000---------0-000-00000---------|
|
|------------------------------------------|
|------------------------------------------|
|------------------------------------------|
|----------------------2-------------------|
|-2x-------------------2-------------------|
|-0x-------------------0-------------------|



Fill 2
|--------|
|--------|
|--------|
|--------|
|-22x-2x-|
|-00x-0x-|


Riff 3b
|------------------------------------|
|------------------------------------|
|------------------3---------5-7-5-4-|
|--------------2-3---3-5~------------|
|------------------------------------|
|-0-000-000000-----------------------|
|
|------------------------------------|
|------------------------------------|
|------------------------------------|
|----------------------2~------------|
|-2x-------------------------3-5-3-2-|
|-0x---------------------------------|


Fill 2
|---------|
|---------|
|---------|
|---------|
|-22x-22x-|
|-00x-00x-|


Riff 3c
|------------------------------------------|
|------------------------------------------|
|------------------3-----------------------|
|--------------2-3---3---------------------|
|----------------------------------3-5-3-2-|
|-0-000-000000---------0-000-00000---------|
|
|------------------------------------------|
|------------------------------------------|
|------------------3-----------------------|
|--------------2-3---3---------------------|
|----------------------------------3-5-3-2-|
|-0-000-000000---------0-000-00000---------|

|------------------------------------------|
|------------------------------------------|
|------------------3---------------5-7-5-4-|
|--------------2-3---3---------------------|
|------------------------------------------|
|-0-000-000000---------0-000-00000---------|
|
|------------------------------------------|
|------------------------------------------|
|------------------3-----------------------|
|--------------2-3---3---------------------|
|----------------------------------3-5-3-2-|
|-0-000-000000---------0-000-00000---------|



Riff 4
|------------------------------------------------------------------|
|------------------------------------------------------------------|
|------------------------------------------------------------------|
|-22222222222233332222222222222222---------------------------------|
|---------------------------------33333333333322223333333333333333-|
|------------------------------------------------------------------|

|----------------------------------------------------------|
|----------------------------------------------------------|
|----------------------------------------------------------|
|-22222222222233332222222222222222-----------------5-4-----|
|---------------------------------2222222222222222-3-2-5-4-|
|------------------------------------------------------3-2-|


Riff 5
|---------------------------------------------------------|
|---------------------------------------------------------|
|-4-4/5-4--4-------------------4-4\3-4-4------------------|
|-2-2/3-2--2-------------------2-2\1-2-2----------5-4-----|
|------------333333-3p2-333333-----------22222222-3-2-5-4-|
|-----------------------------------------------------3-2-|
             ......     ......           ........


Riff 6
|---------------------------------------------|
|---------------------------------------------|
|---------------------------------------------|
|---------------------------------------------|
|-2-2222-2-22-2-2-222222-22-2-2-2222-2-22-2-2-|
|-0-0000-0-00-0-0-000000-00-0-0-0000-0-00-0-0-|


Riff 7               Fill 3
|----------------|  |---------|
|----------------|  |---------|
|----------------|  |---------|
|----------------|  |---------|
|--------2--2--2-|  |-22--2-2-|
|-111111-0--0--0-|  |-00--0-0-|


Riff 8a
|--------------------------------------------------------|
|--------------------------------------------------------|
|--------------------------------------------------------|
|------2h3----4h5----2h3----------2h3----4h5----2h3----7-|
|--------------------------3-----------------------------|
|-0000-----00-----00-----0-1-0000-----00-----00-----00---|


Riff 9a                                    Fill 4
|--------------------------------------|  |---------|
|--------------------------------------|  |---------|
|--------------------------------------|  |---------|
|------2h3----4h5----2h3p2\------------|  |---------|
|---------------------------22-2-2-2-2-|  |-2-2-2-2-|
|-0000-----00-----00--------00-0-0-0-0-|  |-0-0-0-0-|


Riff 10
|----------------------------------|
|----------------------------------|
|----------------------------------|
|----------------------------------|
|----------------------------------|
|-00000000000033331111111111111111-|


Riff 11a                           Riff 11b
|------------------------------|  |--------------------------------|
|------------------------------|  |--------------------------------|
|------------------------------|  |--------------------------------|
|------------------------------|  |--------------------------------|
|-----------------------2"-----|  |-----------------------2"-3"-2"-|
|-0"------------------------3"-|  |-0"-----------------------------|


Riff 12
|----------------------|
|----------------------|
|-4----5---------------|
|-2----3----7----------|
|-2----3----7----3-2-3-|
|-----------5----3-2-3-|


Riff 13
|---------------------------------------|
|---------------------------------------|
|---------------------------------------|
|---------------------------------------|
|---3-2---2-3-3-2-2-----3-2---2-3-3-2-3-|
|-2-----2---------0---2-----2---------1-|


Riff 14
|-----------------------------------------------------------------|
|-----------------------------------------------------------------|
|-----------------------------------------------------------------|
|---------3-------------------------------3-----------------------|
|-----------------3-------------------------------3---------------|
|-1-1-1-1---1-1-1---1-1-1-4-2-4-2-1-1-1-1---1-1-1---1-1-1-4-2-4-2-|

|-----------------------------------------------------------------|
|-----------------------------------------------------------------|
|-----------------------------------------------------------------|
|---------2-------------------------------2-----------------------|
|-----------------2-------------------------------2---------------|
|-0-0-0-0---0-0-0---0-0-0-3-1-3-1-0-0-0-0---0-0-0---0-0-0-3-1-3-1-|

  Visit MetalTabs.com for more metal tablature

bottom separator

Contact Us | Privacy Policy | Disclaimer | Legal Notice
Copyright © 2001-2014 MetalTabs.com. All Rights Reserved.