top separator

Home

Forum

What's New

Submit a Tab

FAQ

Links

Contact Us

Link to Us

MetalTabs.com logo

Bands

0-9

A

B

C

D

E

F

G

H

I

J

K

L

M

N

O

P

Q

R

S

T

U

V

W

X

Y

Z

Search

What

Where
 

Illdisposed - "Forbidden Summer Poetry" Guitar Tab

Plain Text Version
More Illdisposed Tabs

Hits: 3210
Updated: 2004-03-07 03:08:49

 

By:

Daniil

sendpm.gif

email.gif

Important note
This tab is available online because we obtained explicit permission from Illdisposed or their label.


#----------------------------------PLEASE NOTE---------------------------------#
#This file is the author's own work and represents their interpretation of the #
#song. You may only use this file for private study, scholarship, or research. #
#Unless specified otherwise, this is NOT an official tab from the band members.#
#------------------------------------------------------------------------------#

  Visit MetalTabs.com for more metal tablature
  
ILLDISPOSED-Forbidden Summer Poetry
Four Depressive Seasons-1993
Transcribed by Daniil Laletin
e-mail: dlaletin@mail.ru
version 1.0 December 2003

All corrections are welcome.

 " - tremolo
 / - slide down
 \ - slide up
 . - palm mute
 ~ - long sound
 x - slightly rest


Riff 1
|---------------------------------------------------------------|
|---------------------------------------------------------------|
|---------------------------------------------------------------|
|---------------------------------------------------------------|
|-444-444-444-3~-4-444-4-44-3~-33333333--------3333-------------|
|-222-222-222----2-222-2-22------------11111111----222211111111-|



Riff 2
|----------------------------------------------------------|
|----------------------------------------------------------|
|----------------------------------------------------------|
|---------------------3~---2~------------------------------|
|-----------------2222--------333333332222-----------------|
|-0000000000000000------------------------3333333322222222-|



Riff 3
|----------------------------------------------------------|
|----------------------------------------------------------|
|----------------------------------------------------------|
|---------22222222--------44445555-------------------------|
|---------------------------------3333333322222222---------|
|-00000000--------00000000------------------------33332222-|



Riff 4
|-----------------------------|
|-----------------------------|
|-----------------------------|
|-----------------------------|
|-------------------------6-5-|
|-0-0-0-0-0-0-0-0-0-0-0-0-4-3-|



Riff 5a
|-----------------------------------------------|
|-----------------------------------------------|
|-----------------------------------------------|
|-------6\5---------5\4---4/5---------5/6-------|gtr 1
|-6\5---4\3---5\4---3\2---2/3---4/5---3/4---5/6-|
|-4\3-0-----0-3\2-0-----0-----0-2/3-0-----0-3/4-|
|
|-----------------------------------------------|
|-----------------------------------------------|
|-----------------------------------------------|
|---------------------------5-----------6-------|gtr 2
|---------------------------3-----5-----4-----6-|
|---------------------------------3-----------4-|



Riff 5b
|-----------------------------------------------|
|-----------------------------------------------|
|-----------------------------------------------|
|-------6\5---------5\4---------6\5---------5\4-|gtr 1
|-6\5---4\3---5\4---3\2---6\5---4\3---5\4---3\2-|
|-4\3-0-----0-3\2-0-----0-4\3-0-----0-3\2-0-----|
|
|-----------------------------------------------|
|-----------------------------------------------|
|-----------------------------------------------|
|-------6\5---------5\4---------6\5---------5\4-|gtr 2
|-6\5---4\3---5\4---3\2---6\5---4\3---5\4---3\2-|
|-4\3-0-----0-3\2-0-----0-4\3-0-----0-3\2-0-----|

|-----------------------------------------------|
|-----------------------------------------------|
|-----------------------------------------------|
|-------6\5---------5\4---4/5---------5/6-------|gtr 1
|-6\5---4\3---5\4---3\2---2/3---4/5---3/4---5/6-|
|-4\3-0-----0-3\2-0-----0-----0-2/3-0-----0-3/4-|
|
|-----------------------------------------------|
|-----------------------------------------------|
|-----------------------------------------------|
|-------6\5---------5\4-----5-----------6-------|gtr 2
|-6\5---4\3---5\4---3\2-----3-----5-----4-----6-|
|-4\3-0-----0-3\2-0-----0---------3-----------4-|



Riff 5c
|-----------------------------------------------|
|-----------------------------------------------|
|-----------------------------------------------|
|-------6\5---------5\4---------6\5---------5\4-|gtr 1
|-6\5---4\3---5\4---3\2---6\5---4\3---5\4---3\2-|
|-4\3-0-----0-3\2-0-----0-4\3-0-----0-3\2-0-----|
|
|-----------------------------------------------|
|-----------------------------------------------|
|-----------------------------------------------|
|-------6\5---------5\4---------6\5---------5\4-|gtr 2
|-6\5---4\3---5\4---3\2---6\5---4\3---5\4---3\2-|
|-4\3-0-----0-3\2-0-----0-4\3-0-----0-3\2-0-----|

|-----------------------------------------------|
|-----------------------------------------------|
|-----------------------------------------------|
|-------6\5---------5\4---4/5---------5/6-------|gtr 1
|-6\5---4\3---5\4---3\2---2/3---4/5---3/4---5/6-|
|-4\3-0-----0-3\2-0-----0-----0-2/3-0-----0-3/4-|
|
|-----------------------------------------------|
|-----------------------------------------------|
|-----------------------------------------------|
|-------6\5---------5\4---4/5---------5/6-------|gtr 2
|-6\5---4\3---5\4---3\2---2/3---4/5---3/4---5/6-|
|-4\3-0-----0-3\2-0-----0-----0-2/3-0-----0-3/4-|



Riff 6
|--------------------------------------------------|
|--------------------------------------------------|
|--------------------------------------------------|
|-----------------------------------------77776666-|
|-2----4----2---------5-2----4----55554444---------|
|-0-00---00-0-00-3333---0-00---00------------------|



Riff 7
|----------------------------------|
|----------------------------------|
|----------------------------------|
|-------------4-5------------------|
|-44-44-44-44-----44-44-22-222-----|
|-22-22-22-22-----22-22-00-000-3-2-|



Riff 8
|-----------------------------------------------------|
|-----------------------------------------------------|
|-6----7-6----6-7----8-7----6-5----6-5------7tr8-6tr5-|
|---4------4------5------5------3------3--3-----------|
|-----------------------------------------------------|
|-----------------------------------------------------|

|-----------------------------------------------------|
|-----------------------------------------------------|
|-6----7-6----6-7----8-7----6-5----6-5------/7-----/6-|
|---4------4------5------5------3------3--3-----------|
|-----------------------------------------------------|
|-----------------------------------------------------|


Riff 9
|-------------------------------------------|
|-------------------------------------------|
|-------------------------------------------|
|-4----3----3----7-7~---4----5----3----7-7~-|
|-4----3----3----7------4----5----3----7----|
|-2----1----1----5------2----3----1----5----|



Riff 10
|----------------------------------|
|----------------------------------|
|----------------------------------|
|----------------------------------|
|-------------------------55554444-|
|-222222223333222233332222---------|

|------------------------------|
|------------------------------|
|------------------------------|
|--------------------------4-3-|
|------------------------------|
|-222222223333222233332222-----|



Riff 11
|--------------------------------------------------|
|--------------------------------------------------|
|--------------------------------------------------|
|---------22222222--------44445555-----------------|
|---------------------------------3333333322220000-|
|-00000000--------00000000-------------------------|

|------------------------------------------------|
|------------------------------------------------|
|------------------------------------------------|
|---------22222222--------44445555---------2---4-|
|---------------------------------33333333-0-5-2-|
|-00000000--------00000000-------------------3---|


Riff 12
|------------------|
|------------------|
|------------------|
|-4-----2----------|
|-2-----0-----5--4-|
|-------------3--2-|


Clean part over riff 12
|-----------------------------------------------------------------|
|-------3---------------3---------------3-------------------------|
|-----4---0---0-------4---0---0-------2---0---0-------0-----------|
|---4-------4---4---4-------4---4---2-------4---4---4---4---4---4-|
|-2---------------2---------------0-------------------------------|
|-------------------------------------------------3-------2---3---|

  Visit MetalTabs.com for more metal tablature

bottom separator

Contact Us | Privacy Policy | Disclaimer | Legal Notice
Copyright © 2001-2014 MetalTabs.com. All Rights Reserved.