top separator

Home

Forum

What's New

Submit a Tab

FAQ

Links

Contact Us

Link to Us

MetalTabs.com logo

Bands

0-9

A

B

C

D

E

F

G

H

I

J

K

L

M

N

O

P

Q

R

S

T

U

V

W

X

Y

Z

Search

What

Where
 

Immortal - "Beyond the North Waves" Bass Tab

Plain Text Version
More Immortal Tabs

Hits: 8506
Rated: 4.60 out of 5 (5 votes)
Updated: 2004-03-07 02:59:41

 

Important note
We did our best to reach Immortal and ask for their permission to publish this tab. Unfortunately they did not respond to our requests or we could not find a way to contact them. This tab is available online until Immortal tells us to take it down.


#----------------------------------PLEASE NOTE---------------------------------#
#This file is the author's own work and represents their interpretation of the #
#song. You may only use this file for private study, scholarship, or research. #
#Unless specified otherwise, this is NOT an official tab from the band members.#
#------------------------------------------------------------------------------#

  Visit MetalTabs.com for more metal tablature
  
artist: Immortal
song: Beyond the north waves
album: Sons of northern darkness
Riff 1 (4 times)

----------------------------------|----------------------------------|
----------------------------------|----------------------------------|
-3-------3--3-3--3-------3--1-1---|-3-------3--3-3--3-------3--1-1---|
----------------------------------|----------------------------------|


Riff 2
----------------------------------|----------------------------------|
----------------------------------|----------------------------------|
-6--------------------------------|-5-----------------------1--------|
----------------------------------|----------------------------------|


Then play :
            Riff 1 (2 times)
            Riff 2
            Riff 1


Riff 3
----------------------------------|----------------------------------|
----------------------------------|----------------------------------|
----------------------------------|----------------------------------|
-6-------6--6--6--6---------------|-1-------1--1-1--1----------------|


Then play :
            Riff 1
            Riff 3




Riff 4
----------------------------------|----------------------------------|
----------------------------------|----------------------------------|
-3--------------------------------|----------------------------------|
----------------------------------|-3--------------------------------|


Then play:
            Riff 1 (2 times)
            Riff 2
            Riff 1 (3 times)
            Riff 2
            Riff 1
            Riff 3
            Riff 1
            Riff 3
            Riff 4

            Riff 1 (2 times)
            Riff 2
            Riff 1 (3 times)
            Riff 2
            Riff 1
            Riff 3
            Riff 1
            Riff 3
            Riff 1
            Riff 3 (2 times)
            Riff 4


Riff 5 (2 times)
----------------------------------|----------------------------------|
----------------------------------|----------------------------------|
-----0---5------------------------|-5--------------------------------|
-0--------------------------------|----------------------------------|


----------------------------------|----------------------------------|
----------------------------------|----------------------------------|
---------6------------------------|-6--------------------------------|
-0---0----------------------------|----------------------------------|


----------------------------------|----------------------------------|
----------------------------------|----------------------------------|
-----0---5------------------------|-5--------------------------------|
-0--------------------------------|----------------------------------|




----------------------------------|----------------------------------|
----------------------------------|----------------------------------|
---------5------------------------|-5-------6------------------------|
-0---0----------------------------|----------------------------------|


Riff 6 (follow keyboard)
----------------------------------|----------------------------------|
-3-----------------------6---5-6--|-3-------4-------------------3----|
----------------------------------|----------------------------------|
----------------------------------|----------------------------------|


Then play :
            Riff 5 (2 times)
            Riff 6 (2 times)


Riff 7 (2 times)
------------11-----9-----7--------|------------11-----9----7---------|
----------------------------------|----------------------------------|
-1-/-3---3------5-----3-----1-----|-1-/-3---3------5----3------------|
----------------------------------|----------------------------------|


Riff 8 (2 times)
------------16-------16------16---|------------16------16------16----|
-3-/-5---5------16-------15-----16|-3-/-5---5------16------15------16|
----------------------------------|----------------------------------|
----------------------------------|----------------------------------|


Then play
            Riff 7 (2 times)
            Riff 8 (2 times)
            Riff 7 (2 times)

            Riff 1 (2 times)


Riff 2 b
----------------------------------|----------------------------------|
----------------------------------|----------------------------------|
-6--------------------------------|-8--------------------------------|
----------------------------------|----------------------------------|



Then play :
            Riff 1
            Riff 2
            Riff 1
            Riff 3
            Riff 1
            Riff 3
            Riff 1
            Riff 3 (2 times)


Ending
----------------------------------|
----------------------------------|
-3--------------------------------|
----------------------------------|

  Visit MetalTabs.com for more metal tablature

bottom separator

Contact Us | Privacy Policy | Disclaimer | Legal Notice
Copyright © 2001-2014 MetalTabs.com. All Rights Reserved.