top separator

Home

Forum

What's New

Submit a Tab

FAQ

Links

Contact Us

Link to Us

MuSpy.com

MetalTabs.com logo

Bands

0-9

A

B

C

D

E

F

G

H

I

J

K

L

M

N

O

P

Q

R

S

T

U

V

W

X

Y

Z

Search

What

Where
 

Disincarnate - "In Sufferance" Guitar Tab

Plain Text Version
More Disincarnate Tabs

Hits: 4108
Rated: 5.00 out of 5 (1 vote)
Updated: 2004-03-07 02:49:08

 

Important note
We did our best to reach Disincarnate and ask for their permission to publish this tab. Unfortunately they did not respond to our requests or we could not find a way to contact them. This tab is available online until Disincarnate tells us to take it down.


#----------------------------------PLEASE NOTE---------------------------------#
#This file is the author's own work and represents their interpretation of the #
#song. You may only use this file for private study, scholarship, or research. #
#Unless specified otherwise, this is NOT an official tab from the band members.#
#------------------------------------------------------------------------------#

  Visit MetalTabs.com for more metal tablature
  
Band: Disincarnate
Album: Dreams of th Carrion Kind
Title: In Sufferance

Composed by: Drewman
mail: drewballi@hotmail.com
Date: 2/22/04


LG = Left Guitar
RG = Right Guitar
. = Palm Mute
~ = slight bend up and down
/ = Slide up to


Riff  1 LG

|--------------------------------|---------------------------------|
|--------------------------------|---------------------------------|
|--------------------------------|-8-------------------------------|
|-2------------------------------|-8-------------------------------|
|-2---------------------------2--|-6-----------------------4-3-4-5-|
|-0----------------------------3-|-6-----------------------2-1-2-3-|
                              ..                           . . . .

Riff 1 RG

|--------------------------------|---------------------------------|
|--------------------------------|---------------------------------|
|--------------------------------|---------------------------------|
|--------------------------------|---------------------------------|
|-----5-----4-----3-----2-----2--|-----5-----4-----3-----2-4-3-4-5-|
|-4343--3232--2121--1010--1010-3-|-4343--3232--2121--1010--2-1-2-3-|
  ....  ....  ....  ....  ......   ....  ....  ....  ....  . . . .
____________________________________________________________________

LG

|--------------------------------|-----------------------------------------|
|--------------------------------|-----------------------------------------|
|--------------------------------|-----------------------------------------|
|-2------------------------------|-------------------------2-------3-------|
|-2---------------------------2--|-----5-----4-----3-----2-2-1-2-3-3-2-3-4-|
|-0----------------------------3-|-4343--3232--2121--1010----1-2-3---2-3-4-|
                              ..   ....  ....  ....  ....    . . .   . . .
RG

|--------------------------------|-----------------------------------------|
|--------------------------------|-----------------------------------------|
|--------------------------------|-----------------------------------------|
|--------------------------------|-------------------------2-------3-------|
|-----5-----4-----3-----2-----2--|-----8-----7-----6-----5-2-1-2-3-3-2-3-4-|
|-4343--3232--2121--1010--1010-3-|-7676--6565--5454--4343----1-2-3---2-3-4-|
  ....  ....  ....  ....  ......   ....  ....  ....  ....    . . .   . . .

____________________________________________________________________________

Riff 2

LG & RG  x 4

|----------------------------------|
|----------------------------------|
|----------------------------------|
|-2222----1111---------------------|
|-----3333----22223333----4444-----|
|---------------------4444----5555-|
  ................................
____________________________________

Riff 3

LG	x 4

|--------------------------------------|-------------------------------------|
|--------------------------------------|-------------------------------------|
|--------------------------------------|-------------------------------------|
|----------------------------------ah--|-------------------------------------|
|-----------------------------------9--|-7-7-7-7-9-7-7-7-9-10-9-7-9-10-9~~~~-|
|-8-8-8-8-10-8-8-8-10-11-10-8-10-11----|-------------------------------------|
  . . . .    . . .                       . . . .   . . .

RG	x 4

|--------------------------------|-----------------------------------------|
|--------------------------------|-----------------------------------------|
|--------------------------------|-----------------------------------------|
|----------------------------ah--|-----------------------------------------|
|-----------------------------6--|-4-4-4-4-6-4-4-4-6-7-6-4-6-7-6~~~~-------|
|-5-5-5-5-7-5-5-5-7-8-7-5-7-8----|-----------------------------------------|
  . . . .   . . .                  . . . .   . . .
____________________________________________________________________________

Riff 4

LG x 3
RG 1ST & 3RD X

|---------------------------------|--------------------------------------|
|---------------------------------|--------------------------------------|
|---------------------------------|-----------------------------3434-----|
|---------------------------------|-------------------------3434----3434-|
|-2-----------2---1---------------|-2-----------2---1---1212-------------|
|-0---0-0-2-3---3---2-0-0-0-0-0-1-|-0---0-0-2-3---3---2------------------|
      . . . .   .   . . . . . .         . . . .   .   .  h h h h h h h h

RG 2ND X

|---------------------------------|--------------------------------------|
|---------------------------------|--------------------------------------|
|---------------------------------|-----------------------------5656-----|
|---------------------------------|-------------------------5656----5656-|
|-2-----------2---1---------------|-2-----------2---1---4545-------------|
|-0---0-0-2-3---3---2-0-0-0-0-0-1-|-0---0-0-2-3---3---2------------------|
      . . . .   .   . . . . . .         . . . .   .   .  h h h h h h h h

Riff 4B

LG & RG	4th X

|---------------------------------|---------------------------------|
|---------------------------------|---------------------------------|
|---------------------------------|---------------------------------|
|---------------------------------|-----------------7-------2-------|
|-2-----------2---1---------------|-2-----------2---7---6---2---4---|
|-0---0-0-2-3---3---2-0-0-0-0-0-1-|-0---0-0-2-3---3---8---7---3---5-|
      . . . .   .   . . . . . .         . . . .   .   .   .   .   .
_____________________________________________________________________

Riff 2	x 4
Riff 3	x 4
Riff 4 (Play Riff 4c on 4th x)

Riff 4c

LG

|---------------------------------|--------------------------------------|
|---------------------------------|--------------------------------------|
|---------------------------------|-----------------------------3434-----|
|---------------------------------|-------------------------3434----3434-|
|-2-----------2---1---------------|-2-----------2---1---1212-------------|
|-0---0-0-2-3---3---2-0-0-0-0-0-1-|-0---0-0-2-3---3---2------------------|
      . . . .   .   . . . . . .         . . . .   .   .  h h h h h h h h

RG

|---------------------------------|--------------------------------------|
|---------------------------------|--------------------------------------|
|---------------------------------|-----------------------------5656-----|
|---------------------------------|-------------------------5656----5656-|
|-2-----------2---1---------------|-2-----------2---1---4545-------------|
|-0---0-0-2-3---3---2-0-0-0-0-0-1-|-0---0-0-2-3---3---2------------------|
        . . . .   .   . . . . . .         . . . .   .   .  h h h h h h h h
__________________________________________________________________________

Riff 5

LG
                		x 4
|---------------------------------|-----|
|---------------------------------|-----|
|---------------------------------|-----|
|------------8-7~-----------------|-----|
|-/6---5~---------------------8-7~|-/6~-|
|------------------/7---6~--------|-----|


RG
                		   			            x 2
|----------------------------------|----------------------------------|-----|
|----------------------------------|----------------------------------|-----|
|------------8-7~------------------|------------8-7-------------------|-----|
|--------8-7-----------------------|--------8-7-----8-7-8-8-7-7-------|-----|
|-/6---5~----------10~--9~----8-7~-|-/6---5~--------------------8-7~--|-/6~-|
|----------------------------------|----------------------------------|-----|

_____________________________________________________________________________

Riff 6

LG

|--------------------------------------------------------------------------|
|--------------------------------------------------------------------------|
|--------------------------------------------------------------------------|
|-2-----------------------------------------------------------2------------|
|-2-----------6~--5~----------4~--3~--------------------------2------------|
|-0-------------------6~--------------4~------6---------------0------------|

RG	(2 guitars)

|--------------------------------------------------------------------------|
|--------------------------------------------------------------------------|
|---------------------------------5~--6~------8~---------------------------|
|-2-----------8~--7~----------6~--5~--6~------8~--------------2------------|
|-2-----------9~--8~--8~------7~------------------------------2------------|
|-0-------------------9~--------------------------------------0------------|

Riff 6b

LG

|--------------------------------------------------------------------------|
|--------------------------------------------------------------------------|
|--------------------------------------------------------------------------|
|-2-----------------------------------------------------------2------------|
|-2-----------6~--5~----------4~--3~--------------------------2------------|
|-0-------------------6~--------------4~------6~--------------0------------|

RG	(2 guitars)

|--------------------------------------------------------------------------|
|--------------------------------------------------------------------------|
|---------------------------------5~--4~------6~---------------------------|
|-2-----------8~--7~----------6~--5~--6~------8~--------------2------------|
|-2-----------9~--8~--8~------7~------------------------------2------------|
|-0-------------------9~--------------------------------------0------------|

____________________________________________________________________________

Riff 7a

LG

|------------------------------------------------------------------------------|
|------------------------------------------------------------------------------|
|------------------------------------------------------------------------------|
|---------------------------------2---1--------------6~--5~------------2---1---|
|-----------------------------3-----3---2-3~-----4~----------------3-----3---2-|
|-4444444455551111000000003-4---4------------------------------3-4---4---------|
  ......................... . . .   .   .                      . . . .   .   .

RG

|------------------------------------------------------------------------------|
|------------------------------------------------------------------------------|
|---------------------------------4---3--------------------------------4---3---|
|-----------------------------5-----5---4------------9~--8~--------5-----5---4-|
|-------------------------5-6---6---------6~-----7~------------5-6---6---------|
|-444444445555111100000000-----------------------------------------------------|
  ......................... . . .   .   .                      . . . .   .   .

Riff 7b

LG

|------------------------------------------------------------------------|
|------------------------------------------------------------------------|
|------------------------------------------------------------------------|
|---------------------------------2---1---------------6~--5~------4~-----|
|-----------------------------3-----3---2-3~------4~----------6~---------|
|-4444444455551111000000003-4---4----------------------------------------|
  ......................... . . .   .   .

RG

|------------------------------------------------------------------------|
|------------------------------------------------------------------------|
|---------------------------------4---3----------------------------------|
|-----------------------------5-----5---4-------------9~--8~------7~-----|
|-------------------------5-6---6---------6~------7~----------9~---------|
|-444444445555111100000000-----------------------------------------------|
  ......................... . . .   .   .

__________________________________________________________________________

Riff 8 Lead Rythm


|----------------------------------|----------------------------------|
|----------------------------------|----------------------------------|
|----------------------------------|----------------------------------|
|----------------------------------|-------------33332222----11111111-|
|-000000001111---------------------|-000000001111--------3333---------|
|-------------33331111111111111111-|----------------------------------|
  ................................   ................................

|----------------------------------|----------------------------------|
|----------------------------------|----------------------------------|
|----------------------------------|----------------------------------|
|----------------------------------|-------------33332222----1111-----|
|-000000001111---------------------|-000000001111--------3333----3311-|
|-------------33331111111111111111-|----------------------------------|
  ................................   ................................

|----------------------------------|----------------------------------|
|----------------------------------|----------------------------------|
|----------------------------------|----------------------------------|
|----------------------------------|-------------33332222----11111111-|
|-000000001111---------------------|-000000001111--------3333---------|
|-------------33331111111111111111-|----------------------------------|
  ................................   ................................

|----------------------------------|----------------------------------|
|----------------------------------|----------------------------------|
|----------------------------------|-------------10--9----------------|
|----------------------------------|-7-------8---10--9---10-----------|
|-000000001111---------------------|-7-------8----8--7---10--6~-------|
|-------------33331111111111111111-|-5-------6------------8-----------|
  ................................

_______________________________________________________________________

Riff 9	x 4
Both Guitars		    2 gtrs
  		           |-------|
|-----------------------------------|---------------------------------|
|-----------------------------------|---------------------------------|
|-----7/8-7~------9/10-8~-----------|-----6/7-6-----------------------|
|-----------------------------------|----------------------------AH---|
|-----5/6-5~------7/8--7~--44443333-|-----4/5-4-------11110000----2~--|
|-0000--------0000---------66665555-|-0000--------0000--------3333----|
  ....        ....         ........   ....        ................

|-----------------------------------|---------------------------------|
|-----------------------------------|---------------------------------|
|-----7/8-7~------9/10-8~-/13--12~--|-----6/7-6-----------------------|
|-----------------------------------|-------------------------------2-|
|-----5/6-5~------7/8--7~-/11--10~--|-----4/5-4---------------------2-|
|-0000--------0000------------------|-0000--------0000453-2---342-1---|
  ....        ....                    ....        ......      ..
_______________________________________________________________________


|-----------------|
|-----------------|
|-----------------|
|-7-------2-------|
|-7---6---2---4---|
|---8---7---3---5-|
    .   .   .   .

Riff 2
LG & RG  x 4

|----------------------------------|
|----------------------------------|
|----------------------------------|
|-2222----1111---------------------|
|-----3333----22223333----4444-----|
|---------------------4444----5555-|
  ................................

|-----------------|-----------------|---------------------|
|-----------------|-----------------|---------------------|
|-----------------|-----------------|---------------------|
|-7-------2-------|-7-------2-------|-2-----------------2-|
|-7---6---2---4---|-7---6---2---4---|-2-----------------2-|
|---8---7---3---5-|---8---7---3---5-|-0-----------------0-|
    .   .   .   .     .   .   .   .


I tabbed this song out because I wrote the drum track for it.
If you find any errors, let me know where:
drewballi@hotmail.com

enjoy, if it isn't too old school for ya.

Drewman

  Visit MetalTabs.com for more metal tablature

bottom separator

Contact Us | Privacy Policy | Disclaimer | Legal Notice
Copyright © 2001-2014 MetalTabs.com. All Rights Reserved.