top separator

Home

Forum

What's New

Submit a Tab

FAQ

Links

Contact Us

Link to Us

MuSpy.com

MetalTabs.com logo

Bands

0-9

A

B

C

D

E

F

G

H

I

J

K

L

M

N

O

P

Q

R

S

T

U

V

W

X

Y

Z

Search

What

Where
 

Suffocation - "Despise The Sun" Guitar Tab

Plain Text Version
More Suffocation Tabs

Hits: 3299
Rated: 2.29 out of 5 (7 votes)
Updated: 2004-03-07 02:40:24

 

By:

BestialWarrior

sendpm.gif

email.gif

Important note
This tab is available online because we obtained explicit permission from Suffocation or their label.


#----------------------------------PLEASE NOTE---------------------------------#
#This file is the author's own work and represents their interpretation of the #
#song. You may only use this file for private study, scholarship, or research. #
#Unless specified otherwise, this is NOT an official tab from the band members.#
#------------------------------------------------------------------------------#

  Visit MetalTabs.com for more metal tablature
  
Band:  (SUFFOCATION)
Album: (DESPISE THE SUN)
Song:  (DESPISE THE SUN)

Copyright (c)  (RELAPSE RECORDS) (2002)
Version 1.0 - (2-18-04)

Transcribed By: (BestialWarrior)
Email:           Bestialson2003@yahoo.com

*:For Rythym Guitar.

.  - palm mute           /  - slide up to
\  - slide down to       ~  - vibrato
h  - hammer on           b  - Bend
p  - pull off            Suffixes for bend
t  - tap                 f  - full bend    h - half bend
ph - pinched harmonic    q  - quarter bend t - tap bend
*  - see comment         ^  - Hold bend    r release bend
x  - Stuccatto           ~  - vibrato bend
,  - slight palm mute    () - ghost note, sustained note
"  - tremolo note        <> - Trill
S  - Sustained Note      G  - Gallop

Tunning: Tune Low to High:
6=Df 5=Gf 4=Cf 3=Ff 2=Af 1=Df

Note:My first Suffocation Tune.  It should be pretty accurate.
I spent enough time on the damn thing!...This tune(as well as others)
is one mean son of a bitch! You guys catch my drift?....:[

Riff#1A.
|---------------------------------------------------------------
|---------------------------------------------------------------
|---------------------------------------------------------------
|---------------------------------------------------------------
|----310-----530-7-------7-----------310-----530-7-------7------
|310-----530-----6-0-0-0-6-0-0-0-310-----530-----6-0-0-0-6-0-0-0
 ... ... ... ...   . . .   . . . ... ... ... ...   . . .   . . .

Riff#1A Continued...
|---------------------------------------------------------------
|---------------------------------------------------------------
|---------------------------------------------------------------
|---------------------------------------------------------------
|----750-----868-7-------7-----------310-----530-7-------7------
|750-----860-----6-0-0-0-6-0-0-0-310-----530-----6-0-0-0-6-0-0-0
 ... ... ... ...   . . .   . . . ... ... ... ...   . . .   . . .

Riff#1A Continued...
|-------------||
|-------------||
|-------------||
|----640-----7||
|750-----4-6--||
|-------------||
 ... ... . .

Riff#1B.                                              Fill 1.
|-----------------------------------------------|---------------|
|-----------------------------------------------|---------------|
|-----------------------------------------------|---------------|
|-----------------------------------------------|---------------|
|7-------7-----------310-----530-7-------7------|----860-----979|
|6-0-0-0-6-0-0-0-310-----530-----6-0-0-0-6-0-0-0|860-----970----|
   . . .   . . . ... ... ... ...   . . .   . . .

Riff#1B Continued...
   Fill 2.
|---------------||
|---------------||
|---------------||
|----640-----757||
|750-----570----||
|---------------||
 ...     ...

Transition A.
|----------------------------||
|----------------------------||
|----------------------------||
|----------------------------||
|7-------7-------7--------5-5||
|6-0-0-0-6-0-0-0-6-0-0-0-4-4-||
   . . .   . . .   . . . . .

Riff#2.Fast as Hell..               Fill 1  Fill 2
|--------------------------|-------|------|--------||
|--------------------------|-------|------|--------||
|--------------------------|-------|------|--------||
|--------------------------|-------|------|--------||
|--------------------------|------2|456543|-655-433||
|00000000433333333433333333|4-3-2--|234321|04330211||
 ,,,,,,,,,,,,,,,,,,,,,,,,,, , , ,          ........

Transition B.
|-------||
|-------||
|-------||
|------4||
|4-----2||
|2-0433-||
   ....

Riff#3. Fast as Hell!...
|---------------------------------------------------------------
|---------------------------------------------------------------
|-------------------------------P--------P--------P-------------
|------------------------------6/5------6/5------5/4------------
|---------------------------------------------------------------
|000000000000333333444444333333---333333---333333---444444444444
 ,,,,,,,,,,,,,,,,,,,,,,,,,,,,,,   ,,,,,,   ,,,,,,   ,,,,,,,,,,,,

Riff#3.Continued...
|-------------------------------------------------------------
|-------------------------------------------------------------
|-------------------------------------------------------------
|-------------------P--------P-------4------------------------
|------------------3/2------3/2-------------------------------
|111111222222111111---111111---111111-000000000000333333444444
 ,,,,,,,,,,,,,,,,,,   ,,,,,,   ,,,,,, ,,,,,,,,,,,,,,,,,,,,,,,,

Riff#3.Continued...
|---------------------------------------------------||
|-------P--------P--------P-------------------------||
|------5/4------5/4------4/3------------------------||
|---------------------------------------------------||
|---------------------------------------------------||
|333333---333333---333333---444444444444111111222222||
 ,,,,,,   ,,,,,,   ,,,,,,   ,,,,,,,,,,,,,,,,,,,,,,,,

Transition C.
|------||
|------||          Repeat Riffs#2,3..
|------||
|------||
|4--5-4||
|2--3-2||

Transition D.
|------------||
|------------||
|----2-------||
|---2--------||
|032---0430--||
|----------65||
 ....

Riff#4A.
|------------------------||
|------------------------||
|----2-----2-----2-------||
|---2-----2-----2--------||
|032---032---032---0430--||
|----------------------65||
 ....  ....  ....

Riff#4B.
|---------------------------T-||
|--------------------------(3)||
|-----1-----1-----1-----3-2-3-||
|----1-----1-----1---2-3------||
|-021---021---021---0---------||
|0----------------------------||
  ....  ....  ....  .. .

Riff#4C.
|-------------------------||
|-------------------------||
|----2-----2-----2-4\5--43||      Repeat Riffs#4A,4B,4C
|---2-----2-----2-----56--||
|032---032---032----------||
|-------------------------||
 ....  ....  ....     ....

Transition E.
|------||
|------||
|-43-43||
|5--5--||
|------||
|------||
 ......

Riff#5A.Slighty Fast..
|--------------------------------------------------------------------||
|--------------------------------------------------------------------||
|---------------------------------3-4-----3-4------------------------||
|-----------------------------------------------------2--------------||
|------2-3-2-----------2-3-2--2-3-----2-3-------------2-5------------||
|0-0-0--0-0--3-2-0-0-0--0-0--0----------------0-0-0-0---3-3-3-3-3-3-3||
 . . .  . .  . . . . .  . .  .                . . . .   . . . . . . .
..
Riff#5B.Slighty Fast..
|--------------------------------------------------------------------||
|---------------------------------3-4-----3-4------------------------||
|--------------------------------------------------------------------||
|-----------------------------2-3-----2-3-------------2--------------||
|------2-3-2-----------2-3-2--------------------------2-5------------||
|0-0-0--0-0--3-2-0-0-0--0-0--0----------------0-0-0-0---3-3-3-3-3-3-3||
 . . .  . .  . . . . .  . .  .                . . . .     . . . . . .

Transition F.
|-||
|-||
|-||            Repeat Riff#2.
|-||
|2||
|0||

End Riff..
|----------------||
|----------------||
|----------------||
|----------------||
|-655-433-433-433||
|0433021102110211||
 ................

END.

Note: The beginning half of Riff#5A and 5B are a bit iffy.  The other half
should be no big deal.  I kept listening to the cd and playing it over and over
and I have what I have tabbed here, in any case, email me if you hear something
different, or vice versa.:[

  Visit MetalTabs.com for more metal tablature

bottom separator

Contact Us | Privacy Policy | Disclaimer | Legal Notice
Copyright © 2001-2014 MetalTabs.com. All Rights Reserved.