top separator

Home

Forum

What's New

Submit a Tab

FAQ

Links

Contact Us

Link to Us

MetalTabs.com logo

Bands

0-9

A

B

C

D

E

F

G

H

I

J

K

L

M

N

O

P

Q

R

S

T

U

V

W

X

Y

Z

Search

What

Where
 

Blood Duster - "Pornstorestiffi" Guitar Tab

Plain Text Version
More Blood Duster Tabs

Hits: 4090
Rated: 3.00 out of 5 (2 votes)
Updated: 2004-03-07 02:39:30

 

Important note
This tab is available online because we obtained explicit permission from Blood Duster or their label.


#----------------------------------PLEASE NOTE---------------------------------#
#This file is the author's own work and represents their interpretation of the #
#song. You may only use this file for private study, scholarship, or research. #
#Unless specified otherwise, this is NOT an official tab from the band members.#
#------------------------------------------------------------------------------#

  Visit MetalTabs.com for more metal tablature
  
Blood Duster - Pornstorestiffi
Tabbed by Seve

Tuning - B (BEADGb)

. - palm mute
p - pull off
h - hammer on

Main Riff
|-----------------|
|-----------------|
|-----------5-----|
|-7-5-7-2-3-5-5-6-|
|-7-5-7-2-3-3-5-6-|
|-5-3-5-0-1---3-4-|

Fill
|---------|
|---------|
|-----7---|
|-7-5-7-5-|
|-7-5-5-5-|
|-5-3---3-|

Verse
|---------------------------------|
|---------------------------------|
|---------------------------------|
|-----------------------------5-6-|
|-7-7-7-7-7-7-7-7-7-7-7-7-7-7-5-6-|
|-5-5-5-5-5-5-5-5-5-5-5-5-5-5-3-4-|
  . . . . . . . . . . . . . .

Bridge
|--------------------------------------------|
|-----------------------------7--------------|
|-------5---------------9-7-9-7--------------|
|-7-5-7-5-0h2-5p2-------9-7-9-5-0h2-5p2------|
|-7-5-7-3---------5p2---7-5-7-----------5p2--|
|-5-3-5--------------------------------------|

All the other tabs of this either have incorrect tunings or are simply
wrong altogether, so I bothered to tab it myself.

  Visit MetalTabs.com for more metal tablature

bottom separator

Contact Us | Privacy Policy | Disclaimer | Legal Notice
Copyright © 2001-2014 MetalTabs.com. All Rights Reserved.