top separator

Home

Forum

What's New

Submit a Tab

FAQ

Links

Contact Us

Link to Us

MuSpy.com

MetalTabs.com logo

Bands

0-9

A

B

C

D

E

F

G

H

I

J

K

L

M

N

O

P

Q

R

S

T

U

V

W

X

Y

Z

Search

What

Where
 

Seth - "The Sons Of Seth" Guitar Tab

Plain Text Version
More Seth Tabs

Hits: 3228
Updated: 2004-03-07 02:37:26

 

Important note
We did our best to reach Seth and ask for their permission to publish this tab. Unfortunately they did not respond to our requests or we could not find a way to contact them. This tab is available online until Seth tells us to take it down.


#----------------------------------PLEASE NOTE---------------------------------#
#This file is the author's own work and represents their interpretation of the #
#song. You may only use this file for private study, scholarship, or research. #
#Unless specified otherwise, this is NOT an official tab from the band members.#
#------------------------------------------------------------------------------#

  Visit MetalTabs.com for more metal tablature
  
Band:  SETH
Album: DIVINE-X
Song:  THE SONS OF SETH

Copyright (c)  (RECORD LABEL) (YEAR)
Version 1.0 - (DATE)

Transcribed By: DAIMONION
Email:          DEATHCRUSH@WANADOO.FR


.  - palm mute           /  - slide up to
\  - slide down to       ~  - vibrato
h  - hammer on           b  - Bend
p  - pull off            Suffixes for bend
t  - tap                 f  - full bend    h - half bend
ph - pinched harmonic    q  - quarter bend t - tap bend
*  - see comment         ^  - Hold bend    r release bend
x  - Stuccatto           ~  - vibrato bend
,  - slight palm mute    () - ghost note, sustained note
"  - tremolo note        <> - Trill

Tunning D G C F A D



	Riff 1a X4
|---------------------------------------------------------------------------|
|---------------------------------------------------------------------------|
|---------------------------------------------------------------------------|
|---------------------------------------------------------------------------|
|-------------5"----------6-----6------------------5"----------2-----2------|
|-4"--7"--4"------7"--6"--4-44444-4444-4"--7"--4"------7"--6"--0-00000-0000-|
|				    ....  ....                	     ....  ....
|
|
|	Riff 1b
|-------------------------------------------------------------------|
|------------G2--Lead-----------------------------------------------|
|-------------------------------------------------------------------|
|-------------------------------------------------------------------|
|-------------------------------------------------------------------|
|-------------------------------------------------------------------|




	Riff 2
|---------------------------------------------------------------------------------------------------------|
|---------------------------------------------------------------------------------------------------------|
|-------------------------------------------------------------------------8-------------------------------|
|----------------------------------------------------------------------------5--6-----------------6h9p7---|
|-3-5--3--2--------3-2------10-5-6----------3------3/5-5\3-2-------------------------------3------------8-|
|-1-3--1--0-000000-1-0-0000--8-3-4-44444444-1-1111-1/3-3\1-0-000000000000---------44444444-1-1111---------|
            ......     ....        ........   ....           ............         ........   ....

|-----------------------------------------------------------------------------------------------------|
|-----------------------------------------7h8p7...----------------------------------------------------|
|------------------------------------------------------------------8----------------------------------|
|---------------------------------------------------------------------5--6----------------------------|
|-2--------3-2------10-5-6---------3----------------2--------------------------------3------3/5-5\3-2-|
|-0-000000-1-0-0000--8-3-4-4444444-1-1111-----------0-000000000000----------44444444-1-1111-1/3-3\1-0-|
    ......     ....        .......   ....             ............          ........   ....




	Fill
|-------------|
|-------------|
|-2-5-5--5--5-|
|-------------|
|-------------|
|-------------|





	Riff 3a
|---------------------------------------------------------|
|---------------------------------------------------------|
|---------------------------------------------------------|
|---------------------------------------------------------|
|---------------------------------------------------------|
|-4-4-4-4-4-4-4-7-7-7-7-7-7-7-5-5-5-5-5-5-5-1-1-1-1-1-1-1-|
  . . . . . . . . . . . . . . . . . . . . . . . . . . . .

	Riff 3b
|---------------------------------------------------------|
|---------------------------------------------------------|
|---------------------------------------------------------|
|---------------------------------------------------------|
|---------------------------------------------------------|
|-4"------------7"------------5"------------1"------------|


	Riff 3a X2

	Riff 3b

	Riff 3a



	Riff 4 X2
|--------------------------------|
|--------------------------------|
|--------------------------------|
|-----------------6---9---7------|
|-6---9---7---3---------------6--|
|-4---7---5---1------------------|



	Riff 5a X6
|----------------------------------------------|
|----------------------------------------------|
|----------------------------------------------|
|---------7-10-9-6-----------7-10-10-9h10p9----|
|-6-6-6-6------------7-*--7-----------------11-|
|-4-4-4-4------------5-*--5--------------------|
|   . .
|
|	Riff 5b
|------------------------------------------|
|-----------G2--Tapping--------------------|
|------------------------------------------|
|------------------------------------------|
|------------------------------------------|
|------------------------------------------|





	Riff 2
|---------------------------------------------------------------------------------------------------------|
|---------------------------------------------------------------------------------------------------------|
|-------------------------------------------------------------------------8-------------------------------|
|----------------------------------------------------------------------------5--6-----------------6h9p7---|
|-3-5--3--2--------3-2------10-5-6----------3------3/5-5\3-2-------------------------------3------------8-|
|-1-3--1--0-000000-1-0-0000--8-3-4-44444444-1-1111-1/3-3\1-0-000000000000---------44444444-1-1111---------|
            ......     ....        ........   ....           ............         ........   ....

|---------------------------------------------------------------------------------------------------|
|-----------------------------------------7h8p7...--------------------------------------------------|
|------------------------------------------------------------------8--------------------------------|
|---------------------------------------------------------------------5--6------------------6h9p7---|
|-2--------3-2------10-5-6---------3----------------2--------------------------------3------------8-|
|-0-000000-1-0-0000--8-3-4-4444444-1-1111-----------0-000000000000----------44444444-1-1111---------|
    ......     ....        .......   ....             ............          ........   ....


|-------------------------------------------------------------------------------------------------|
|-------------------------------------------------------------------------------------------------|
|-----------------------------------------------------------------8-------------------------------|
|--------------------------------------------------------------------5--6-----------------6h9p7---|
|-2--------3-2------10-5-6----------3------3/5-5\3-2-------------------------------3------------8-|
|-0-000000-1-0-0000--8-3-4-44444444-1-1111-1/3-3\1-0-000000000000---------44444444-1-1111---------|
    ......     ....        ........   ....           ............         ........   ....



|-----------------------------------------------------------------------------------------------------|
|-----------------------------------------7h8p7...----------------------------------------------------|
|------------------------------------------------------------------8----------------------------------|
|---------------------------------------------------------------------5--6----------------------------|
|-2--------3-2------10-5-6---------3----------------2--------------------------------3------3/5-5\3-2-|
|-0-000000-1-0-0000--8-3-4-4444444-1-1111-----------0-000000000000----------44444444-1-1111-1/3-3\1-0-|
    ......     ....        .......   ....             ............          ........   ....




	Riff 1a X4        Riff 1b




	Riff 6
|---------------------------------------------------------|
|---------------------------------------------------------|
|---------------------------------------------------------|
|---------------------------------------------------------|
|---------------------------------------------------------|
|---------------------------------------------------------|

  Visit MetalTabs.com for more metal tablature

bottom separator

Contact Us | Privacy Policy | Disclaimer | Legal Notice
Copyright © 2001-2014 MetalTabs.com. All Rights Reserved.