top separator

Home

Forum

FAQ

Contact Us

Link to Us

MetalTabs.com logo

Bands

0-9

A

B

C

D

E

F

G

H

I

J

K

L

M

N

O

P

Q

R

S

T

U

V

W

X

Y

Z

Cephalic Carnage - "Observer To The Obliteration Of Planet Earth" Guitar Tab

Plain Text Version
More Cephalic Carnage Tabs

Hits: 3604
Updated: 2004-03-06 11:53:38

By:

shredder


#----------------------------------PLEASE NOTE---------------------------------#
#This file is the author's own work and represents their interpretation of the #
#song. You may only use this file for private study, scholarship, or research. #
#Unless specified otherwise, this is NOT an official tab from the band members.#
#------------------------------------------------------------------------------#

  Visit MetalTabs.com for more metal tablature
  
Band: 	Cephalic Carnage
Album:	Exploiting Dysfunction
Song:	Observer To The Obliteration Of Planet Earth

Copyright  Relapse Records 2000
Version 1.0 - February 16 2004

Transcribed By:	Joe Holly
E-mail:		rivers_of_gore666@yahoo.com

.  - palm mute           /  - slide up to
\  - slide down to       ~  - vibrato
h  - hammer on           b  - Bend
p  - pull off            Suffixes for bend
t  - tap                 f  - full bend    h - half bend
ph - pinched harmonic    q  - quarter bend t - tap bend
*  - see comment         ^  - Hold bend    r release bend
x  - Stuccatto           ~  - vibrato bend
,  - slight palm mute    () - ghost note, sustained note
"  - tremolo note        <> - Trill

Tuning: B E A D G B

Riff 1
Guitar 1
|----------------------------------|
|----------------------------------|
|----------------------------------|
|----------------------------------|
|-4-----5-----6-----6--7-----7--8--|
|-2-----3-----4-----4--5-----5--6--|

Guitar 2 *tremolo picked
|----------------------------------|
|----------------------------------|
|----------------------------------|
|----------------------------------|
|-3"----4"----5"----6"-7"----7"-8"-|
|----------------------------------|
  .     .     .     .  .     .  .

Riff 2
|----------------------------------|
|----------------------------------|
|----------------------------------|
|---5-6---6-7---7---7-8---8---9-10-|
|-4-3-4-5-4-5-6-5-6-5-6-7-6-8-7--8-|
|-2-----3-----4---4-----5---6------|
  .     .     .   .     .   .

Riff 1 (guitar 2 uses toggle switch)
Riff 2
Riff 1

Riff 3
Guitar 1
|---------------------------------------------------------------|
|----------------4h5-5------------------------------------------|
|-7~---5--7~---5-------6/7--7h9-5~------------------------------|
|------------------------------------6-6h8-5~-------------------|
|---------------------------------------------------------------|
|---------------------------------------------------------------|

|--------------------------------------------------|
|--------------------------------------------------|
|-------------------------------------5~----7h9p7~-|
|-------------------------------6h7h9-----6--------|
|-------------------------6h8h9--------------------|
|--------------------------------------------------|

Guitar 2
|-7--------------------3----------------------6----------------|
|-8--------------------4----------------------7----------------|
|-7--------------------3----------------------6----------------|
|--------------------------------------------------------------|
|--------------------------------------------------------------|
|--------------------------------------------------------------|

|-2--------------3---4---5----------------------7--|
|-3--------------4---5---6----------------------8--|
|-2--------------3---4---5----------------------7--|
|--------------------------------------------------|
|--------------------------------------------------|
|--------------------------------------------------|

Riff 4A
|-------------------------------------|
|-------------------------------------|
|-------------------------------------|
|-------------------------------------|
|---------------2---3---2---4---2---3-|
|-4-6-6-6-4-6-6-0---1---0---2---0---1-|
  . . . . . . . .   .   .   .   .   .

|------------------------------------------------|
|------------------------------------------------|
|------------------------------------------------|
|------------------------------------------------|
|-8-10-10-10-8-10-10-------8-10-10-------8-10-10-|
|--------------------1-2-2---------1-2-2---------|
  .  .  .  . .  .  . . . . .  .  . . . . .  .  .

|-------------------------------------------------|
|-------------------------------------------------|
|-------------------------------------------------|
|-------------------------13-13-15-15-16-16-14-14-|
|-------13-13-15-15-16-16-------------------------|
|-1-2-2-------------------------------------------|
  . . .  .  .  .  .  .  .  .  .  .  .  .  .  .  .

|-------------------------------------------|
|-------------------------------------------|
|-------------------------------------------|
|-------------------------------------------|
|-2---3---2---4---2---3---8-8-10-10---------|
|-0---1---0---2---0---1-------------4-4-6-6-|
  .   .   .   .   .   .   . .  .  . . . . .

Riff 4B
|-----------------------------------------------------------------------|
|-----------------------------------------------------------------------|
|-----------------------------------------------------------------------|
|-----------------------------------------------------------------------|
|-2---3---2---4---2---3---2---4---2---3---2---4---2---3---2---4---2---3-|
|-0---1---0---2---0---1---0---2---0---1---0---2---0---1---0---2---0---1-|
  .   .   .   .   .   .   .   .   .   .   .   .   .   .   .   .   .   .

Riff 4C
|-----------------------------------------|
|-----------------------------------------|
|---------------------------6-----\5---\4-|
|---------------------------x-------------|
|---------------------------4-----\3---\2-|
|-----------------------------------------|

Riff 5A
|-------------------|
|-------------------|
|-------------------|
|-------------------|
|-4--3--2--5--4--3--|
|-2--1--0--3--2--1--|
  .  .  .  .  .  .

Riff 5B
Guitar 1
|------------------------------------------------------------------------------|
|------------------------------------------------------------------------------|
|------------------------------------------------------------------------------|
|------------------------------------------------------------------------------|
|-2--4--3-------------3--5--4-------------4--6--5--------------5--7--6---------|
|-0--2--1-------------1--3--2-------------2--4--3--------------3--5--4---------|
  .  .  .             .  .  .             .  .  .              .  .  .

Guitar 2
|------------------------------------------------------------------------------|
|------------------------------------------------------------------------------|
|--------9-\8-\7-3ph---------10-\9-\8-3ph--------11-\10-\9-3ph--------14\13\12-|
|--------x--------------------x-------------------x--------------------x-------|
|--------7-\6-\5--------------8-\7-\6-------------9-\-8-\7------------12\11\10-|
|------------------------------------------------------------------------------|

Riff 5A

Riff 6A
|---------------------------------------------|
|---------------------------------------------|
|---------------------------------------------|
|-8"\\\---7"-6"-------6"-5"-------5"-4"-------|
|-x"------------8"-5"-------7"-4"-------6"-3"-|
|-6"\\\---------------------------------------|

|-------------------------------------------------|
|-------------------------------------------------|
|-------------------------------------------------|
|-6"-5"-------5"-4"-------4"-3"-------7"-6"-------|
|-------7"-4"-------6"-3"-------5"-2"-------8"-5"-|
|-------------------------------------------------|

Riff 6B
|-------------------------------------------------------------------------|
|-------------------------------------------------------------------------|
|-------------------------------------------------------------------------|
|-----7-7-6-6-----6-6---------6-6-5-5-----5-5---------5-5-4-4-----4-4-----|
|-8-8---------5-5-----5-5-4-4---------4-4-----4-4-3-3---------3-3-----3-3-|
|-------------------------------------------------------------------------|
  . . . . . . . . . . . . . . . . . . . . . . . . . . . . . . . . . . . .

|-----------------------------------------------------------------|
|-----------------------------------------------------------------|
|-----------------------------------------------------------------|
|-----6-6-5-5-----5-5---------5-5-4-4-----4-4------4--3----3-3----|
|-7-7---------4-4-----4-4-3-3---------3-3-----3--2------2------1--|
|-----------------------------------------------------------------|
  . . . . . . . . . . . . . . . .

|--------------------------------------------------------------|
|--------------------------------------------------------------|
|-------------------6------------------------------------------|
|----7--6------6----6------------------------------------------|
|-9--------5--------4------------------------------------------|
|--------------------------------------------------------------|

Riff 7A
|----------------------------------------------|
|----------------------------------------------|
|----------------------------------------------|
|----------------------------------------------|
|-2--2--4--4--3--3--6--6--2--2-----------------|
|-0--0--2--2--1--1--4--4--0--0-----------------|

Riff 7B
|-------------------------|
|-------------------------|
|-------------------------|
|-------------------------|
|-2--2--4--4--3--3--6--6--|
|-0--0--2--2--1--1--4--4--|

Riff 7C
|-------------------------|
|-------------------------|
|-------------------------|
|-------------------------|
|-------------------------|
|-0"----2"----1"----4"----|
  .     .     .     .

Riff 7A
Riff 7B

Riff 7D
|-------------------------------|
|-------------------------------|
|-------------------------------|
|-------------------------------|
|-4-6-3-2-----2-----2-----2-----|
|-2-4-1-0-----0-----0-----0-----|
  . . . .     .     .     .

Riff 8
|--------------------------------------------------|
|--------------------------------------------------|
|--------------------------------------------------|
|--------------------------------------------------|
|----3"-4"----4"-5"----5"----5"-6"----6"----7"--8"-|
|-2"-------3"-------4"----4"-------5"----6"--------|

Riff 2

Ending
|----------------------------------|
|----------------------------------|
|----------------------------------|
|---5-6---6-7---7---7-8---8---9-10-|
|-4-3-4-5-4-5-6-5-6-5-6-7-6-8-7--8-|
|-2-----3-----4---4-----5---6------|
                              .  .

  Visit MetalTabs.com for more metal tablature

bottom separator

Contact Us | Privacy Policy | Disclaimer
Copyright © 2001-2014 MetalTabs.com. All Rights Reserved.