top separator

Home

Forum

What's New

Submit a Tab

FAQ

Links

Contact Us

Link to Us

MuSpy.com

MetalTabs.com logo

Bands

0-9

A

B

C

D

E

F

G

H

I

J

K

L

M

N

O

P

Q

R

S

T

U

V

W

X

Y

Z

Search

What

Where
 

Mithotyn - "Hail Me" Guitar Tab

Plain Text Version
More Mithotyn Tabs

Hits: 3539
Rated: 5.00 out of 5 (4 votes)
Updated: 2004-03-06 11:20:09

 

By:

timedragon

sendpm.gif

email.gif

Important note
This tab is available online because we obtained explicit permission from Mithotyn or their label.


#----------------------------------PLEASE NOTE---------------------------------#
#This file is the author's own work and represents their interpretation of the #
#song. You may only use this file for private study, scholarship, or research. #
#Unless specified otherwise, this is NOT an official tab from the band members.#
#------------------------------------------------------------------------------#

  Visit MetalTabs.com for more metal tablature
  
Band:  Mithotyn
Album: King of the Distant Forest
Song:  Hail ME
Transcribed By: Trey Dixon
Email: Moonlitdungeon@aol.com


.  - palm mute           /  - slide up to
\  - slide down to       ~  - vibrato
h  - hammer on           b  - Bend
p  - pull off            Suffixes for bend
t  - tap                 f  - full bend    h - half bend
ph - pinched harmonic    q  - quarter bend t - tap bend
*  - see comment         ^  - Hold bend    r release bend
x  - Stuccatto           ~  - vibrato bend
,  - slight palm mute    () - ghost note, sustained note
"  - tremolo note        <> - Trill

(Guitar 1)Tune down 1 whole step (DGCFAD- low to high)

(Guitar 2)Tune down 1 whole step and drop D

These are all the riffs in order. Repeat when necessary(it will be).
On some of the rhythm parts you might need to figure the timing.

Guitar 1
|-------------------------------------------------------------------|
|-------------------------------------------------------------------|
|-----------9-9~~------------9-9~~------------9-7-10-9-7------7-9---|
|-------7-9-------0-0-0--7-9-------------7-9-------------10-7-------|
|-7-7-7-------------------------------------------------------------|
|----------------------------------8-8-8----------------------------|

Guitar 2  (once only)
|--------------------------------------------------------------------|
|--------------------------------------------------------------------|
|--------------------------------------------------------------------|
|-7---------------5---------------3----------5---5---5---5-----------|
|-7---------------5---------------3----------5---5---5---5-----------|
|-7---------------5---------------3----------5---5---5---5-----------|

Guitar 1
|-----------------------------------------------------------------------------|
|----------8------------------------------------------------------------------|
|------7-9---10-9~~-----------7-----------------------9-----------------10-9-7|
|7-7-7--------------------7-9---10-9~~----------10-12---12-10~~-----7-9-------|
|-------------------7-7-7--------------10-10-10-------------------7-----------|
|-----------------------------------------------------------------------------|

Guitar 2
|-----------------------------------------------------------------------------|
|-----------------------------------------------------------------------------|
|-----------------------------------------------------------------------------|
|-7-7-7-7-----------5-5-5-5------------3-3-3-3--------------------5-5-5-5-----|
|-7-7-7-7-----------5-5-5-5------------3-3-3-3--------------------5-5-5-5-----|
|-7-7-7-7-----------5-5-5-5------------3-3-3-3--------------------5-5-5-5-----|

Guitar 2  (on here guitar 1 goes back to starting riff, so guitar 2 does this)
|-------------------------------------------------------------------|
|-------------------------------------------------------------------|
|-------------------------------------------------------------------|
|-7--7-7-7-7-7-7--5--5-5-5-5-5-5--3--3-3-3-3-3-3---5-5-5-5----------|
|-7--7-7-7-7-7-7--5--5-5-5-5-5-5--3--3-3-3-3-3-3---5-5-5-5----------|
|-7--7-7-7-7-7-7--5--5-5-5-5-5-5--3--3-3-3-3-3-3---5-5-5-5----------|
     . . . . . .     . . . . . .     . . . . . .

Guitar 1      (after the “7~~” I don’t know how to make that distortion)L
|----------------------------------------------------------------------|
|----------------------------------------------------------------------|
|-----------7----7-9---------------------------------------------------|
|-7-7-10-10---10------7-7-10-10-9-7----7-------------------------------|
|-----------------------------------10---8-7-5-7~~---------------------|
|----------------------------------------------------------------------|

Guitar 2
|----------------------------------------------------------------------|
|----------------------------------------------------------------------|
|----------------------------------------------------------------------|
|-7-7--3-3--5-5--10----7-7--3-3--5-5--10-10---3-2---------3-----5------|
|-7-7--3-3--5-5--10----7-7--3-3--5-5--10-10---3-2---------3-----5------|
|-7-7--3-3--5-5--10----7-7--3-3--5-5--10-10---3-2---------3-----5------|

Guitar 1
|-------------------------------------------------------------------|
|-------------------------------------------------------------------|
|---------------9-7----9-7----7------7-----------------9------------|
|-10-9-7-10-9-7-----10-----10---10-9---10-9-9h10-9-7-9--------------|
|-------------------------------------------------------------------|
|-------------------------------------------------------------------|

Guitar 2
|-------------------------------------------------------------------|
|-------------------------------------------------------------------|
|-------------------------------------------------------------------|
|-7--7-7--7-7-7--10--10-10--10-10-10--5--5-5--5-5-5--7--7-7--7-7-7--|
|-7--7-7--7-7-7--10--10-10--10-10-10--5--5-5--5-5-5--7--7-7--7-7-7--|
|-7--7-7--7-7-7--10--10-10--10-10-10--5--5-5--5-5-5--7--7-7--7-7-7--|

Guitar 1                            don’t know what harmonic it is...
|--------------------------------------------------------------------
|--------------------------------------------------------------------
|--------------------------------------------9h10-9-7-9----7---------
|-7—7-7—7h9p7-6-7-9-10--7—7-7—7h9p7-6-7-9-10------------10---10-9-10-
|--------------------------------------------------------------------
|--------------------------------------------------------------------
continue (after 10 from above)
|-------------------------|
|-------------------------|
|-9-9h10-9-7-9------9-----|
|--------------10-9---6-7-|
|-------------------------|
|-------------------------|


Guitar 2        (x2)
|--------------------|------------------------------|
|--------------------|------------------------------|
|--------------------|------------------------------|
|7-7-7-7-7-7-5-2-9-10|12-12-12-10-10-10-5-5-5-7-7-7-|
|7-7-7-7-7-7-5-2-9-10|12-12-12-10-10-10-5-5-5-7-7-7-|
|7-7-7-7-7-7-5-2-9-10|12-12-12-10-10-10-5-5-5-7-7-7-|
             . . .
continue (after pow7 from above)
|---------------------------|
|---------------------------|
|---------------------------|
|12-12-12-10-10-10-14-14-5-7|
|12-12-12-10-10-10-14-14-5-7|
|12-12-12-10-10-10-14-14-5-7|

Go back to beginning with riffs 1 and 2 then proceed with...

Guitar 2 (or both)
|-------------------------------------------------------------------|
|-------------------------------------------------------------------|
|-------------------------------------------------------------------|
|-7-7-7-7-9-9-9-9-10--3-3-3-3--3--3-3--3----------------------------|
|-7-7-7-7-9-9-9-9-10--3-3-3-3--3--3-3--3----------------------------|
|-7-7-7-7-9-9-9-9-10--3-3-3-3--3--3-3--3----------------------------|
      . .     . .     . . . .     . .

Guitar 2
|-------------------------------------------------------------------|
|-------------------------------------------------------------------|
|-------------------------------------------------------------------|
|-7-7-7-7-10-10-10-10-5-5-5-5--3-3--3--3-3--3-----------------------|
|-7-7-7-7-10-10-10-10-5-5-5-5--3-3--3--3-3--3-----------------------|
|-7-7-7-7-10-10-10-10-5-5-5-5--3-3--3--3-3--3-----------------------|
                               . .     . .
Guitar 2
|-------------------------------------------------------------------|
|-------------------------------------------------------------------|
|-------------------------------------------------------------------|
|-7-7-7-7-10-10-10-10-5-3-2--2-2-2--2-2--2--2-2--2------------------|
|-7-7-7-7-10-10-10-10-5-3-2--2-2-2--2-2--2--2-2--2------------------|
|-7-7-7-7-10-10-10-10-5-3-2--2-2-2--2-2--2--2-2--2------------------|
                             . . .  . .     . .

Guitar 2 keep playing (as DIRECTLY above) while solo plays

Guitar 1      “solo” 1
|-----------------------------------12------------------------------|
|-------------13-12-13-12-—12-13-12----15-13-12-13-12---------------|
|-12h14-—12h14----------------------------------------12------------|
|-------------------------------------------------------------------|
|-------------------------------------------------------------------|
|-------------------------------------------------------------------|


“solo 1” continued
|-----------------------------12----11/12---------------------------|
|-------------12-13-15-—12-13----12---------------------------------|
|-12h14-12h14-------------------------------------------------------|
|-------------------------------------------------------------------|
|-------------------------------------------------------------------|
|-------------------------------------------------------------------|

                      (10~~ for last time only)
|-------------------------------------------------------------------|
|----------------------10~~-----------------------------------------|
|-----------------9-11----------------------------------------------|
|---------9-11-12---------------------------------------------------|
|-9-11-12-----------------------------------------------------------|
|-------------------------------------------------------------------|


Guitar 1   “solo” 2
|-------------------------------------------------------------------|
|-10-8--------------------------------------------------------------|
|------9----7-7b-7--------------------------------------------------|
|--------10---------10-9-7------------------------------------------|
|--------------------------10---------------------------------------|
|-------------------------------------------------------------------|
“solo 2” continued
|----------7-8-7-8-10-8-7-------------------------------------------|
|-10-8---8----------------------------------------------------------|
|------9------------------------------------------------------------|
|-------------------------------------------------------------------|
|-------------------------------------------------------------------|
|-------------------------------------------------------------------|
“solo 2” continued
|----------------------------------------------------------------------|
|-10-8-----------------------------------------------------------------|
|------9----7-7b-7----------------7h9---9-7----------------------------|
|--------10--------10-9-7-------9-----9-----10-9-7----7~~--------------|
|-------------------------10-10-------------------10-------------------|
|----------------------------------------------------------------------|

Guitar 2 (play throughout “solo 2”)
|----------------------------------------------------------------------|
|----------------------------------------------------------------------|
|----------------------------------------------------------------------|
|-7-10-5--5-5-5-5-5-5-5---7-10-12--12-12-12-12-12-12-12--7-10-5--3-5-7-|
|-7-10-5--5-5-5-5-5-5-5---7-10-12--12-12-12-12-12-12-12--7-10-5--3-5-7-|
|-7-10-5--5-5-5-5-5-5-5---7-10-12--12-12-12-12-12-12-12--7-10-5--3-5-7-|
          . . . . . . .             .  .  .  .  .  .  .


Go back and repeat all riffs as necessary to complete song.

END

  Visit MetalTabs.com for more metal tablature

bottom separator

Contact Us | Privacy Policy | Disclaimer | Legal Notice
Copyright © 2001-2014 MetalTabs.com. All Rights Reserved.