top separator

Home

Forum

What's New

Submit a Tab

FAQ

Links

Contact Us

Link to Us

MetalTabs.com logo

Bands

0-9

A

B

C

D

E

F

G

H

I

J

K

L

M

N

O

P

Q

R

S

T

U

V

W

X

Y

Z

Search

What

Where
 

Antimatter - "Flowers" Guitar Tab

Plain Text Version
More Antimatter Tabs

Hits: 3841
Rated: 5.00 out of 5 (3 votes)
Updated: 2004-03-06 03:42:38

 

By:

sendpm.gif

email.gif

Important note
This tab is available online because we obtained explicit permission from Antimatter or their label.


#----------------------------------PLEASE NOTE---------------------------------#
#This file is the author's own work and represents their interpretation of the #
#song. You may only use this file for private study, scholarship, or research. #
#Unless specified otherwise, this is NOT an official tab from the band members.#
#------------------------------------------------------------------------------#

  Visit MetalTabs.com for more metal tablature
  
Artist: Antimatter
Song: Flowers
Album: Saviour
Tabbed by: Marcin Golba

Intro:
|-----0----------0--|-----0---------|
|--3-----3----3-----|--3-----3---3--|
|-------------------|--3---------2--|
|--0----------------|---------------|
|-------------3-----|---------------|
|-------------------|---------------|
                  3x|

Verse:
|-----0----------0--|-----0---------|
|--3-----3----3-----|--3-----3---3--|
|-------------------|--3---------2--|
|--0----------------|---------------|
|-------------3-----|---------------|
|-------------------|---------------|
                  3x|

Chorus:
|--0h1-----0--1--0-----3--1----3--1--|
|--3-------3--3--1-----3--3----3--3--|
|--2-------2--2--0-----3--2----3--2--|
|----------------2-------------------|
|------------------------------------|
|------------------------------------|

Outro:
|--0---0--|
|--0---1--|
|--0---2--| 4x
|--2---3--|
|--2---3--|
|--0------|

gtr1
|--0----0-------0--|
|--0h1--1---0---1--|
|--2----2---0---2--| 2x
|--2----3---0---3--|
|-------3---2---3--|
|-----------3------|

gtr1
|--0----0-------0--|
|--0h1--1---0---1--|
|--2----2---0---2--| 2x
|--2----3---0---3--|
|-------3---2---3--|
|-----------3------|

gtr2
|--5-7-7/8-----7/8-7-3--7/8--7--|
|-------------------------------|
|-------------------------------| 2x
|-------------------------------|
|-------------------------------|
|-------------------------------|


-------------------------------------------------
www.betteroffdead.prv.pl

  Visit MetalTabs.com for more metal tablature

bottom separator

Contact Us | Privacy Policy | Disclaimer | Legal Notice
Copyright © 2001-2014 MetalTabs.com. All Rights Reserved.