top separator

Home

Forum

What's New

Submit a Tab

FAQ

Links

Contact Us

Link to Us

MetalTabs.com logo

Bands

0-9

A

B

C

D

E

F

G

H

I

J

K

L

M

N

O

P

Q

R

S

T

U

V

W

X

Y

Z

Search

What

Where
 

Disincarnate - "Monarch Of The Sleeping Marches" Guitar Tab

Plain Text Version
More Disincarnate Tabs

Hits: 4479
Updated: 2004-03-06 03:41:13

 

By:

drewman

sendpm.gif

email.gif

Important note
We did our best to reach Disincarnate and ask for their permission to publish this tab. Unfortunately they did not respond to our requests or we could not find a way to contact them. This tab is available online until Disincarnate tells us to take it down.


#----------------------------------PLEASE NOTE---------------------------------#
#This file is the author's own work and represents their interpretation of the #
#song. You may only use this file for private study, scholarship, or research. #
#Unless specified otherwise, this is NOT an official tab from the band members.#
#------------------------------------------------------------------------------#

  Visit MetalTabs.com for more metal tablature
  
Artist: Disincarnate
Album: Dreams of the Carrion Kind
Song: Monarch of the Sleeping Marches

Composed by: Drewman
Date: 2/25/04

. = Palm Mute
P = Pull off
H = Hammer on
\ = Slide down
/ = Slide up
~ = Bend up and down

Riff 1 LG & RG
                                x 2
|----------------------|-------|
|----------------------|-------|
|----------------------|-------|
|----------------------|-3-----|
|----------------------|-3-----|
|-4-4-343-2-1--343-2-1-|-1-----|
  . .  hp

Riff 2

RG x4 with LG x2 then LG Riff 2b x2

|-----------------------------------------------|
|-----------------------------------------------|
|-----------------------------------------------|
|--------PH----------------PH-------------------|
|-------787\5-7~----------787\5-7-5\3-5-3-2-----|
|-0-0-0-------------8-7-0-------------------5\4-|
  . . .             . . .             . . .


|-------------------------------------------------|
|-------------------------------------------------|
|-------------------------------------------------|
|-------------------------------------------3-----|
|-------7-5-4-6-4-2-4-2-1-------------------3-----|
|-4-4-4-------------------4-6-4-3-5-3-2-4-2-1-----|
  . . . . . . . . . . . . . . . . . . . . .

Riff 2b
LG

|-----------------------------------------------|
|-----------------------------------------------|
|---------PH---------------PH-------------------|
|-------9109\7-9~--------9109\7-9-7-5-7-5-4-----|
|-------------------------------------------7\6-|
|-0-0-0-------------8-7-0-----------------------|
  . . .             . . .             . . .


|-------------------------------------------------|
|-------------------------------------------------|
|-------------------------------------------5-----|
|-------9-7-6-8-6-4-6-4-3-------------------5-----|
|-6-6-6-------------------6-8-6-5-7-5-4-6-4-3-----|
|-------------------------------------------3-----|
  . . . . . . . . . . . . . . . . . . . . .

___________________________________________________

Riff 3
RG x 4 w/LG x3 then LG 3b

|------------------------------------------------------|
|------------------------------------------------------|
|------------------------------------------------------|
|------------------------------------------------------|
|-----------------------------666666666666555555555555-|
|-1100000011001100000000003344-------------------------|
  ....................................................

Riff 3b
LG on 4th x

|------------------------------------------------------|
|------------------------------------------------------|
|------------------------------------------------------|
|-----------------------------444444444444333333333333-|
|------------------------------------------------------|
|-1100000011001100000000003344-------------------------|
  ....................................................
________________________________________________________

Riff 4 1st verse
LG        x 2

|------------------------------------------------------------------|
|------------------------------------------------------------------|
|------------------------------------------------------------------|
|-----------343-------------343-------------343--------------------|
|---------34---430--------34---430--------34---430---------696-585-|
|-10003000--------10003000--------10003000--------100030007---6----|
  ................................................................

RG        x 2

|------------------------------------------------------------------|
|------------------------------------------------------------------|
|------------------------------------------------------------------|
|------------------------------------------------------------------|
|-----------565-------------565-------------565------------363-252-|
|-1000300056---6501000300056---6501000300056---650100030004---3----|
  ................................................................
____________________________________________________________________

Riff 5
LG        x 2

|-----------------------------------------------------------------|
|-----------------------------------------------------------------|
|-----------------------------------------------------------------|
|-----------------5-5-5-5-6-6-6-6---------------------------------|
|-3-------3-3-3-3-------------------------6-6-6-6-7-7-7-7-6-6-6-6-|
|-1-1-1-1-------------------------4-4-4-4-----------------------6-|
    . . .   . . .   . . .   . .     . . .   . . .   . . .   . .

RG         x 2
(2 Gtrs)

|------------------------------------------------------------------|
|-----------------15~----------------------------------------------|
|---------12------12--------------15-------------------------------|
|-10------10------------------13--13--------------15---------------|
|--8--------------------------11--------------13--13---------------|
|---------------------------------------------11-------------------|


Riff 5b
LG        x 2

|-----------------------------------------------------------------|
|-----------------------------------------------------------------|
|-----------------------------------------------------------------|
|-----------------5-5-5-5-6-6-6-6---------------------------------|
|-3-------3-3-3-3-------------------------6-6-6-6-7-7-7-7-6-6-6-6-|
|-1-1-1-1-------------------------4-4-4-4-----------------------6-|
    . . .   . . .   . . .   . .     . . .   . . .   . . .   . .

RG         x 2
(2 Gtrs)

|-----------------------------------------------------------------|
|----------------11~----------------------------------------------|
|---------8------12~-------------11~------------------------------|
|-6------10-------------------9--13~-------------11~--------------|
|-8--------------------------11---------------9--13~--------------|
|--------------------------------------------11-------------------|

___________________________________________________________________

Riff 4 with Verse 2        x 2
Riff 1         x 2


Riff 6
LG & RG
                              x 6
|-------------------------||---------|
|-------------------------||---------|
|----------------/7-------||---------|
|-4/5-4/5--------/7-6-5-5-||-4/5-4/5-|
|-4/5-4/5-2---2--/5-6-5-5-||-4/5-4/5-|
|-2/3-2/3-0---0--/5-4-3-3-||-2/3-2/3-|
          .   .       . .

Riff 7        x 4

LG

|-------------------------------------------------|
|-------------------------------------------------|
|---------9---------------------------------------|
|-2-------9---3-------------------------5---------|
|-2-------7---3---2-2-----6-5-6~----6---5---6---7-|
|-0---0-0-7---1---0-0-4-----------4---3---4---5---|
      . .         . .             . . .   . . .
RG

|-------------------------------------------------|
|-------------------------------------------------|
|---------9---------------------------------------|
|-2-------9---3-------------------------5---------|
|-2-------7---3---2-2-----3-2-3~----6---5---6---7-|
|-0---0-0-7---1---0-0-1-----------4---3---4---5---|
      . .         . .             . . .   . . .
___________________________________________________

Riff 8

LG

|------------------------------------------------------------------|
|------------------------------------------------------------------|
|------------------------------------------------------------------|
|-2-------------------------------2--------------------------------|
|-2-------------------------------2--------------------------------|
|-0-------------------------2-22220-------------------------2-2222-|
                            . ....                          . ....
RG

|------------------------------------------------------------------|
|------------------------------------------------------------------|
|------------------------------------------------------------------|
|------------------------------------------------------------------|
|---2-----1---3-4---2-----1---------2-----1---3-4---2-----1--------|
|-0---3-4---2-----0---3-4---2-22220---3-4---2-----0---3-4---2-2222-|
  .   . .   .     .   . .   . ....    . .   .     .   . .   . ....


Riff 8b

Gtr III
                                x 4
|---------------------------------|
|---------------------------------|
|-------------/9-7----------------|
|---9----7-8-------9~-----8~------|
|-7---10-----9--------------------|
|---------------------------------|

LG

|------------------------------------------------------------------|
|------------------------------------------------------------------|
|------------------------------------------------------------------|
|------------------------------------------------------------------|
|---5-----4---6-7---5-----4---------5-----4---6-7---5-----4--------|
|-0---6-7---5-----0---6-7---5-55550---6-7---5-----0---6-7---5-5555-|
  .   . .   .     .   . .   . ....    . .   .     .   . .   . ....


RG

|------------------------------------------------------------------|
|------------------------------------------------------------------|
|------------------------------------------------------------------|
|------------------------------------------------------------------|
|---2-----1---3-4---2-----1---------2-----1---3-4---2-----1--------|
|-0---3-4---2-----0---3-4---2-22220---3-4---2-----0---3-4---2-2222-|
  .   . .   .     .   . .   . ....    . .   .     .   . .   . ....

LG

|------------------------------------------------------------------|
|------------------------------------------------------------------|
|------------------------------------------------------------------|
|------------------------------------------------------------------|
|---2-----1---3-4---2-----1---------5-----4---6-7---5-----4--------|
|-0---3-4---2-----0---3-4---2-22220---6-7---5-----0---6-7---5-5555-|
  .   . .   .     .   . .   . ....    . .   .     .   . .   . ....

RG

|------------------------------------------------------------------|
|------------------------------------------------------------------|
|------------------------------------------------------------------|
|------------------------------------------------------------------|
|---2-----1---3-4---2-----1---------2-----1---3-4---2-----1--------|
|-0---3-4---2-----0---3-4---2-22220---3-4---2-----0---3-4---2-2222-|
  .   . .   .     .   . .   . ....    . .   .     .   . .   . ....

____________________________________________________________________

Riff 9

Gtr III

|---------------------------------|
|---------------------------------|
|---------------------------------|
|---------------------------------|
|-7~~~~~~-------------------------|
|---------------------------------|

RG  x 4
LG 1st and 3rd x

|----------------------------------------------------------------|
|----------------------------------------------------------------|
|-------------------------9--------------------------------------|
|-2-----------------------9--------------------------------------|
|-2-------------------4/5-6---------------------------5-6--------|
|-0-------------------2/3-6---2~--1~--------------2~~~----4-5-2~-|

LG 2nd x

|----------------------------------------------------------------|
|----------------------------------------------------------------|
|-------------------------9--------------------------------------|
|-2-----------------------9--------------------------------------|
|-2-------------------4/5-6---------------------------8-9--------|
|-0-------------------2/3-6---2~--1~--------------5~~~----7-8-5~-|

LG 4th x

|----------------------------------------------------------------|
|----------------------------------------------------------------|
|-------------------------9--------------------------------------|
|-2-----------------------9---------------------------7-8--------|
|-2-------------------4/5-6-------------------------------6-7-4~-|
|-0-------------------2/3-6---2~--1~--------------2~~~-----------|

__________________________________________________________________

Riff 10

LG         x 4

|---------------------------------|
|---------------------------------|
|---------------------------------|
|---------------------7-8---------|
|-66666666555555555555----6-7-4~~-|
|---------------------------------|
  ....................

RG        x 4

|---------------------------------|
|---------------------------------|
|---------------------------------|
|---------------------------------|
|---------------------5-6---------|
|-44444444333333333333----4-5-2~~-|
  ....................
___________________________________

Lead Riff
                                x 4
|---------------------------------|
|---------------------------------|
|---------9---------------9-------|
|---------9---------------9-------|
|---------6---------------6-------|
|-000000006-----------7~~~6-3-2-3-|
  ........                  . .

                                                                     x 2
|---------------------------------------------------------------------|
|---------------------------------------------------------------------|
|---------------------------------------------------------------------|
|---------------------------------------------------------------------|
|-------22------66------44------557777------22------55-----44--33-----|
|-000000--333333--777777--555555------000000--333333--66666--55--4444-|
  ...................................................................

_______________________________________________________________________

Riff 3
RG x 4
LG x3
Riff 3b
LG on 4th x
Riff 4
Riff 5        x 4
Riff 5b        x 4

I made this tab because I wrote the drum track for it. I will have the
link to download the drum tracks for each tab posted by me very soon.
If you see any errors, please feel free to email me at drewballi@hotmail.com.

  Visit MetalTabs.com for more metal tablature

bottom separator

Contact Us | Privacy Policy | Disclaimer | Legal Notice
Copyright © 2001-2014 MetalTabs.com. All Rights Reserved.