top separator

Home

Forum

What's New

Submit a Tab

FAQ

Links

Contact Us

Link to Us

MuSpy.com

MetalTabs.com logo

Bands

0-9

A

B

C

D

E

F

G

H

I

J

K

L

M

N

O

P

Q

R

S

T

U

V

W

X

Y

Z

Search

What

Where
 

Exhumed - "Necromaniac" Guitar Tab

Plain Text Version
More Exhumed Tabs

Hits: 5437
Rated: 2.50 out of 5 (2 votes)
Updated: 2004-03-05 17:55:25

 

By:

BestialWarrior

sendpm.gif

email.gif

Important note
This tab is available online because we obtained explicit permission from Exhumed or their label.


#----------------------------------PLEASE NOTE---------------------------------#
#This file is the author's own work and represents their interpretation of the #
#song. You may only use this file for private study, scholarship, or research. #
#Unless specified otherwise, this is NOT an official tab from the band members.#
#------------------------------------------------------------------------------#

  Visit MetalTabs.com for more metal tablature
  
Band:  (EXHUMED)
Album: (GORE METAL)
Song:  (NECROMANIAC)

Copyright (c)  (RELAPSE) (1998)
Version 1.0 - (2-7-04)

Transcribed By: (BestialWarrior)
Email:           Bestialson2003@yahoo.com


.  - palm mute           /  - slide up to
\  - slide down to       ~  - vibrato
h  - hammer on           b  - Bend
p  - pull off            Suffixes for bend
t  - tap                 f  - full bend    h - half bend
ph - pinched harmonic    q  - quarter bend t - tap bend
*  - see comment         ^  - Hold bend    r release bend
x  - Stuccatto           ~  - vibrato bend
,  - slight palm mute    () - ghost note, sustained note
"  - tremolo note        <> - Trill

Tunning:Tune Low to High:
6=B 5=E 4=A 3=D 2=Gf 1=B

*=see end of tune..

Intro: Riff#1.
|------------------||
|------------------||
|------------------||
|5--------5--------||
|35-4-3-2-35-4-3-2-||
|-3-2-1-0--3-2-1-0-||

Riff#2.
|--------------||
|--------------||
|--------------||
|4-----4/5-5---||
|2-2-2-2/3-3-2-||
|--0-0-------0-||

Riff#3.
|------------------------------------------------------------||
|------------------------------------------------------------||
|------------------------------------------------------------||
|--6---7-----------6---7-----------6---7----------6---7---3--||
|--4---5---4/5-4---4---5---4/5-4---4---5--4/5-4---4---5---1-4||
|0---0---0-2/3-2-0---0---0-2/3-2-0---0--0-2/3-2-0---0---0---2||

Riff#4. Fast..
|--------------||
|--------------||
|--------------||
|------------3-||
|------------1-||
|222222222222--||

Riff#5.
|--------||
|--------||       Repeat Riffs#4,5.
|--------||
|4-5-----||
|2-3-5-6-||
|----3-4-||

Riff#6. Fast/Chorus..      Fill.   Transition A.
|------------------|------|----||  |--------||
|------------------|------|----||  |--------||
|------------------|------|----||  |--------||
|------------------|------|----||  |5-------||
|------666---------|------|8-9-||  |35-4-3-2||
|444444---444333333|777666|6-7-||  |-3-2-1-0||
                             *
Repeat Riff#4,5,6

Riff#7..
|--------------------------||
|--------------------------||
|--------------------------||
|---8------------6---------||
|6--6-6-------4--4-4-------||
|4----4-3~----2----2-1~----||
        qb           qb

Riff#8. Slow..
|--------------------||
|--------------------||
|--------------------||
|-----5---------6----||
|2----3----3----4--5-||
|0---------1-------3-||

Transition B.
|----------||
|----------||
|----------||   Repeat #Chorus#6
|----------||
|5-5-5-4-3-||
|3-3-3-2-1-||

End Riff..
|--------||
|--------||
|--------||
|--------||
|9-8-6-5-||
|7-6-4-3-||

End.

Note:Asterisk* on that chord in the chorus rings for
about 4 seconds before playing the end riff...
Any questions, comments, suggestions, email me..

  Visit MetalTabs.com for more metal tablature

bottom separator

Contact Us | Privacy Policy | Disclaimer | Legal Notice
Copyright © 2001-2014 MetalTabs.com. All Rights Reserved.