top separator

Home

Forum

What's New

Submit a Tab

FAQ

Links

Contact Us

Link to Us

MetalTabs.com logo

Bands

0-9

A

B

C

D

E

F

G

H

I

J

K

L

M

N

O

P

Q

R

S

T

U

V

W

X

Y

Z

Search

What

Where
 

Manegarm - "Agirs Vrede" Guitar Tab

Plain Text Version
More Manegarm Tabs

Hits: 4496
Rated: 3.00 out of 5 (1 vote)
Updated: 2004-03-05 17:41:53

 

By:

Darkenelf

sendpm.gif

email.gif

Important note
This tab is available online because we obtained explicit permission from Manegarm or their label.


#----------------------------------PLEASE NOTE---------------------------------#
#This file is the author's own work and represents their interpretation of the #
#song. You may only use this file for private study, scholarship, or research. #
#Unless specified otherwise, this is NOT an official tab from the band members.#
#------------------------------------------------------------------------------#

  Visit MetalTabs.com for more metal tablature
  
Band: Manegarm
Album: Dodsfard
Song: Agirs Vrede
Tabbed by: Martijn Wietsma
Tab Date: 07-02-2004
Email: northerland@yahoo.co.uk
Version: 0.1

h = hammer
p = pick
. = palm mute
~ = pull string up
/ = forward slide
\ = backward slide


Standard E Tuning

Riff A (lead)
|------------------------------------------------------------|
|------------------------------------------------------------|
|-10h12-10h12-10h13p12p10-12p10h-----------------------------|
|--------------------------------13p12~----------------------|
|------------------------------------------------------------|
|------------------------------------------------------------|

|------------------------------------------------------------|
|------------------------------------------------------------|
|----------------10h12-10----10------------------------------|
|-10-10-12h13-10----------13----12~--------------------------|
|------------------------------------------------------------|
|------------------------------------------------------------|

|------------------------------------------------------------|
|------------------------------------------------------------|
|-10h12-10h12-10h13p12p10-12p10h-----------------------------|
|--------------------------------13p12~----------------------|
|------------------------------------------------------------|
|------------------------------------------------------------|

|------------------------------------------------------------|
|------------------------------------------------------------|
|------------------------------------------------------------|
|------------------------------------------------------------|
|-10-10-12h13-10-12----10-10-10-10---------------------------|
|-------------------13---------------------------------------|

riff A (chords)
|------------------------------------------------------------|
|------------------------------------------------------------|
|------------------------------------------------------------|
|-5--7-8--5--7--5-4----------5--7-8--5--8-10-7---------------|
|-3--5-6--3--5--3-2-5--------3--5-6--3--6--8-5---------------|
|-------------------3----------------------------------------|

|------------------------------------------------------------|
|------------------------------------------------------------|
|------------------------------------------------------------|
|-5--7-8--5--7--5-4----------5--7-8--5--8-10-7-7--7-7--------|
|-3--5-6--3--5--3-2-5--------3--5-6--3--6--8-5-5--5-5--------|
|-------------------3----------------------------------------|

repeat riff A (chords) (0:17)

repeat riff A (lead) + (A chords) 1x (0:31)

repeat riff A (chords) 1x (0:47)

riff B (1:03)
|------------------------------------------------------------|
|------------------------------------------------------------|
|-12--12-12--12-12---7--7-7--7-7---8-10-7--------------------|
|-10--10-10--10-10---5--5-5--5-5---6--8-5--------------------|
|------------------------------------------------------------|
|------------------------------------------------------------|

|------------------------------------------------------------|
|------------------------------------------------------------|
|-8-10-11-10-8--7--------------------------------------------|
|-6--8--9--8-6--5-9-10---------------------------------------|
|-----------------7--8---------------------------------------|
|------------------------------------------------------------|

repeat riff A (lead) + (A chords) 1x
repeat riff B 1x (1:24)

riff C (1:31)
|------------------------------------------------------------|
|------------------------------------------------------------|
|----------------5-7-8-7-------------------------------------|
|-5-5--555--5-5--3-5-6-5---4-4--444--4-4---5-7-8-7-----------|
|-3-3--333--3-3------------2-2--222--2-2---3-5-6-5-----------|
|------------------------------------------------------------|

|------------------------------------------------------------|
|------------------------------------------------------------|
|----------------5-7-8-7-------------------------------------|
|-5-5--555--5-5--3-5-6-5---4-4--444--4-4---44-4-/-7--7-7-----|
|-3-3--333--3-3------------2-2--222--2-2---22-2-/-5--5-5-----|
|------------------------------------------------------------|
							(2x)
riff D (2:14)
|------------------------------------------------------------|
|------------------------------------------------------------|
|------------------------------------------------------------|
|-5-5--5/7/8-8-----------------------------------------------|
|-3-3--3/5/6-6--8-5-5--3-5-3--3-5-6--6-5---------------------|
|---------------6-3-3--1-3-1--1-3-4--4-3---------------------|

riff E (2:21)
|------------------------------------------------------------|
|------------------------------------------------------------|
|------------------------------------------------------------|
|-5-5--5/7/8-8-----------------------------------------------|
|-3-3--3/5/6-6--8-------9-------8-------5------4-------------|
|---------------6--7777-7--6666-6--3333-3-2222-2-------------|
                   ....    ....    ....   ....
riff F (2:27)
|------------------------------------------------------------|
|------------------------------------------------------------|
|------------------------------------------------------------|
|-5-5--5/7/8-8-----------------------------------------------|
|-3-3--3/5/6-6--8-5-5--3-5-3--3-5--3-3--3--------------------|
|---------------6-3-3--1-3-1--1-3--1-1--1--------------------|
                                   . .  .
repeat riff E 1x
repeat riff D 1x
repeat riff E 1x

riff G (solo start at 2:14 on CD)
|-----------------------------------------------------------------------|
|-----------------------------------------------------------------------|
|----7-8-10-8-7--------7-8-10-8-7--------7-8-10-8-7--------7-8-7-10-8-7-|
|-10------------10--10------------10--10------------10--10--------------|
|-----------------------------------------------------------------------|
|-----------------------------------------------------------------------|
							(8x)
repeat riff A (chords) 1x (2:55)

riff H (3:14) (play this fast) (end riff)
|------------------------------------------------------------|
|------------------------------------------------------------|
|------------------------------------------------------------|
|---------------------------------------------------33-------|
|-3333-55-66-3333-55-33-22-------3333-55-66-3333-66----5555--|
|--------------------------3333------------------------------|

|------------------------------------------------------------|
|------------------------------------------------------------|
|------------------------------------------------5-----------|
|------------------------------------------------3-7-8--888--|
|-3333-55-66-3333-55-33-22-------3333-55-66-3333---5-6--666--|
|--------------------------3333------------------------------|
							(2x)

  Visit MetalTabs.com for more metal tablature

bottom separator

Contact Us | Privacy Policy | Disclaimer | Legal Notice
Copyright © 2001-2014 MetalTabs.com. All Rights Reserved.