top separator

Home

Forum

What's New

Submit a Tab

FAQ

Links

Contact Us

Link to Us

MetalTabs.com logo

Bands

0-9

A

B

C

D

E

F

G

H

I

J

K

L

M

N

O

P

Q

R

S

T

U

V

W

X

Y

Z

Search

What

Where
 

Exhumed - "CasketKrusher" Guitar Tab

Plain Text Version
More Exhumed Tabs

Hits: 4408
Rated: 3.67 out of 5 (3 votes)
Updated: 2004-03-05 17:39:59

 

By:

BestialWarrior

sendpm.gif

email.gif

Important note
This tab is available online because we obtained explicit permission from Exhumed or their label.


#----------------------------------PLEASE NOTE---------------------------------#
#This file is the author's own work and represents their interpretation of the #
#song. You may only use this file for private study, scholarship, or research. #
#Unless specified otherwise, this is NOT an official tab from the band members.#
#------------------------------------------------------------------------------#

  Visit MetalTabs.com for more metal tablature
  
Band:  (EXHUMED)
Album: (GORE METAL)
Song:  (CASKET KRUSHER)

Copyright (c)  (RELAPSE) (1998)
Version 1.0 - (AUGUST 98)

Transcribed By: (BestialWarrior)
Email:           Bestialson2003@yahoo.com


.  - palm mute           /  - slide up to
\  - slide down to       ~  - vibrato
h  - hammer on           b  - Bend
p  - pull off            Suffixes for bend
t  - tap                 f  - full bend    h - half bend
ph - pinched harmonic    q  - quarter bend t - tap bend
*  - see comment         ^  - Hold bend    r release bend
x  - Stuccatto           ~  - vibrato bend
,  - slight palm mute    () - ghost note, sustained note
"  - tremolo note        <> - Trill
S  - Sustained Note.

Tunning: Tune Low to High:
6=B 5=E 4=A 3=D 2=Gf 1=B

Intro.
|------||
|------||
|------||
|------||
|7-7-7-||
|5-5-5-||
 . .
Riff#1. FAST..
|------------------------------------------------------||
|------------------------------------------------------||
|------------------------------------------------------||
|--------6\5----10\9----6\5----------------------------||
|000000004\30000-8\700004\3-76------6------6-------6-6-||
|---------------------------5444444444444444444444-4-4-||
 ........   ....    ....      ...... ...... ......

Riff#2. FAST..
|----------------------------------------------||
|----------------------------------------------||
|----------------------------------------------||
|--------------------5-------------------------||
|------4------5--------------3------4-------2--||
|333333-333333-333333-2222222-222222-222222--2-||
 ...... ...... ......  ...... ...... ......

Riff#3. CHORUS...FAST..                      FILL.
|--------------------------------|-------|-----------||
|--------------------------------|-------|-----------||
|--------------------------------|-------|-----------||
|------------3---5---------------|------5|3-3-3-3-3-3||
|------------1-3-3-5-------------|3-3-3-3|1-1-1-1-1-1||
|000000000000--1---3-000000000000|1-1-1--|-----------||
 ............        ............ . . .

REPEAT RIFFS#1,2,3.

Riff#4./SOLO RIFF..SLIGHT MEDIUM PACE..
(PLAY 4 TIMES)       (PLAY 4 TIMES)
|--------------------|---------------------||
|--------------------|---------------------||
|--------------------|---------------------||
|---7----8-----6----7|---5----7----3----4--||
|7--5-8--6-10--4-6--5|4--3-5--5-7--1-3--2--||
|5----6----8-----4---|2----3----5----1-----||

REPEAT RIFFS#1,2,3.

Riff#5. VERY SIMILIAR TO RIFF#1, EXCEPT WHERE DIFFERENT.
|-----------------------------||
|-----------------------------||
|-----------------------------||
|------6\5----10\9----6\5-----||
|0000004\30000-8\700004\3-6-7-||
|-------------------------4-5-||
 ......   ....    ....

End.

NOTE: This song kicks ass!..  The more I play it, the more I get into
it..  It just has some kind of vibe to it,etc.  Hope you guys enjoy this one!
:[....

  Visit MetalTabs.com for more metal tablature

bottom separator

Contact Us | Privacy Policy | Disclaimer | Legal Notice
Copyright © 2001-2014 MetalTabs.com. All Rights Reserved.