#----------------------------------PLEASE NOTE---------------------------------#
#This file is the author's own work and represents their interpretation of the #
#song. You may only use this file for private study, scholarship, or research. #
#Unless specified otherwise, this is NOT an official tab from the band members.#
#------------------------------------------------------------------------------#

  Visit MetalTabs.com for more metal tablature
  
Band:  The Elysian Fields
Album: We... the enlightened
Song:  Their blood be on us


Transcribed By: trey dixon
Email:          moonlitdungeon@aol.com


.  - palm mute           /  - slide up to
\  - slide down to       ~  - vibrato
h  - hammer on           b  - Bend
p  - pull off            Suffixes for bend
t  - tap                 f  - full bend    h - half bend
ph - pinched harmonic    q  - quarter bend t - tap bend
*  - see comment         ^  - Hold bend    r release bend
x  - Stuccatto           ~  - vibrato bend
,  - slight palm mute    () - ghost note, sustained note
"  - tremolo note        <> - Trill

tune down 1 whole step (DGCFAD- low to high)

The riffs are in order but only listed once (repeat when necessary)
For the timing on the parts i didnt include timing, just listen to
the song to hear it.  The timing is already on some of the parts.

Guitar 1  All tremolo
|-------------------------------------------------------------------|
|-------------------------------------------------------------------|
|-------------------------------------------------------------------|
|-9-11-12-9-12-11--8-9-11-8-12-11--9-11-12-9-12-11-8-9-11-6-8-9-----|
|-------------------------------------------------------------------|
|-------------------------------------------------------------------|

Guitar 2
|-------------------------------------------------------------------|
|-------------------------------------------------------------------|
|-4"------4"--------------------------------------------------------|
|-4"--4"--4"--4"--2"------------------------------------------------|
|-2"--4"--2"--4"--2"------------------------------------------------|
|-----2"------2"--0"------------------------------------------------|

Guitar 1    All tremolo          trem. 9 on "snare" roll for 2nd time
|-------------------------------------------|------------------------|
|-------------------------------------------|------------------------|
|-------------------------------------------|------------------------|
|----------7-9-7--------------7-11-9-7------|------------9-----------|
|-8-8-9-11-------11-8--8-9-11---------------|------------------------|
|-------------------------------------------|------------------------|

Guitar 2                       trem. pow2 on "snare roll" for 2nd time
|-------------------------------------------|------------------------|
|-------------------------------------------|------------------------|
|-------------------------------------------|------------------------|
|-3-3-4-6-7-9-7-6---3-3-4-6-7-11-9-7--------|-----------4"-----------|
|-3-3-4-6-7-9-7-6---3-3-4-6-7-11-9-7--------|-----------2"-----------|
|-1-1-2-4-5-7-5-4---1-1-2-4-5--9-7-5--------|------------------------|

Guitar 1     All tremolo
|-------------------------------------------------------------------|
|-------------------------------------------------------------------|
|-------------------------------------------------------------------|
|-7-9-11--12-11-9-11------------------------------------------------|
|-------------------------------------------------------------------|
|-------------------------------------------------------------------|

Guitar 2
|-------------------------------------------------------------------|
|-------------------------------------------------------------------|
|-------------------------------------------------------------------|
|-4-4-4-4-4-4-4-4--7-7-7-7-7-7\6--7-7-7-7-7-7-7--9-9-9-9-9-9\7------|
|-4-4-4-4-4-4-4-4--7-7-7-7-7-7\6--7-7-7-7-7-7-7--9-9-9-9-9-9\7------|
|-2-2-2-2-2-2-2-2--5-5-5-5-5-5\4--5-5-5-5-5-5-5--7-7-7-7-7-7\5------|

Both guitars
|-------------------------------------------------------------------|
|-------------------------------------------------------------------|
|----------------------2-1-2-4-2-1----------------------------------|
|-4-4-x-x-4-x-4---2-4-----------------------------------------------|
|-4-4-x-x-4-x-4---0-2-----------------------------------------------|
|-2-2-x-x-2-x-2-----------------------------------------------------|

Played without distortion
|-------------------------------------------------------------------|
|-------------------------------------------------------------------|
|-------------------------------------------------------------------|
|-------------------------------------------------------------------|
|-10-9-7-9--10-9-7-5------------------------------------------------|
|-------------------------------------------------------------------|

|-------------------------------------------------------------------|
|-------------------------------------------------------------------|
|-4-x-x--6-x-x-x--6-x-x--2------------------------------------------|
|-4-x-x--6-x-x-x--6-x-x--2------------------------------------------|
|-2-x-x--4-x-x-x--4-x-x--0------------------------------------------|
|-------------------------------------------------------------------|

Guitar 1      All tremolo
|-------------------------------------------------------------------|
|-------------------------------------------------------------------|
|-------------------------------------------------------------------|
|-9---9-11-12---9---9-11---9---9-11-12---9---9-11-------------------|
|---9-------------9----------9-------------9------------------------|
|-------------------------------------------------------------------|

Guitar 2
|-------------------------------------------------------------------|
|-------------------------------------------------------------------|
|-------------------------------------------------------------------|
|-------------------------------------------------------------------|
|-2---2-0-5-4---2---2-0-5-4-----------------------------------------|
|---2-------------2-------------------------------------------------|

Guitar 1    All tremolo        (Itís the same notes, but up a string)
|-------------------------------------------------------------------|
|-------------------------------------------------------------------|
|-9---9-11-12---9---9-11---9---9-11-12---9---9-11-------------------|
|---9-------------9----------9-------------9------------------------|
|-------------------------------------------------------------------|
|-------------------------------------------------------------------|

Guitar 2
|-------------------------------------------------------------------|
|-------------------------------------------------------------------|
|-------------------------------------------------------------------|
|-2---2-0-5-4---2---2-0-5-4-----------------------------------------|
|---2-------------2-------------------------------------------------|
|-------------------------------------------------------------------|

|-------------------------------------------------------------------|
|-------------------------------------------------------------------|
|-------------------------------------------------------------------|
|-9--7--5--4--------------------------------------------------------|
|-9--7--5--4--------------------------------------------------------|
|-7--5--3--2--------------------------------------------------------|
  .  .  .

End.

  Visit MetalTabs.com for more metal tablature