top separator

Home

Forum

What's New

Submit a Tab

FAQ

Links

Contact Us

Link to Us

MuSpy.com

MetalTabs.com logo

Bands

0-9

A

B

C

D

E

F

G

H

I

J

K

L

M

N

O

P

Q

R

S

T

U

V

W

X

Y

Z

Search

What

Where
 

Lacrimas Profundere - "The Fate Of Equilibrium" Guitar Tab

Plain Text Version
More Lacrimas Profundere Tabs

Hits: 3572
Rated: 4.86 out of 5 (7 votes)
Updated: 2004-03-05 17:33:00

 

Important note
This tab is available online because we obtained explicit permission from Lacrimas Profundere or their label.


#----------------------------------PLEASE NOTE---------------------------------#
#This file is the author's own work and represents their interpretation of the #
#song. You may only use this file for private study, scholarship, or research. #
#Unless specified otherwise, this is NOT an official tab from the band members.#
#------------------------------------------------------------------------------#

  Visit MetalTabs.com for more metal tablature
  
Band:  (Lacrimas Profundere)
Album: (Memorandum)
Song:  (The Fate of Equilibrium)

Version 1.0 - (23:32 05.02.2004)

Transcribed By: (DarkNomad)
Email:          (darkomad@phreaker.net)


tuning: standart eadgbe

00:00 -> 00:18 "acoustic" [intro]

|----------------------0-------|------0-----------0----------------|
|------1-0---------0-------0---|--------3-----------3---1-3-1-1-0--|
|----2-----------2---2---2---2-|----2-----------2------------------|
|------------------------------|--3-----------3--------------------|
|--0-----------0---------------|-----------------------------------|
|------------------------------|-----------------------------------|


-----------------0-----------------|--------5---------------------|
------0-1-0----0------0-1-0--3-1-0-|------5-----------1-------3---|
----2--------2------2--------------|----5-----------2---2---4---4-|
--0--------------------------------|--3-----------3-------5-------|
-----------------------------------|------------------------------|
-----------------------------------|------------------------------| x2 to 00:18


00:36 -> end "w dist"

|-------------------|-------------------|-------------------|---------------------|
|-------------------|-------------------|-------------------|---------------------|
|-------------------|-------------------|-------------------|---------------------|
|--7----------------|--3----------------|--5----------------|--7--------3----5----|
|--7----------------|--3----------------|--5----------------|--7--------3----5----|
|--5----------------|--1----------------|--3----------------|--5--------1----3----| x4 to end

darknomad@phreaker.net

all complete without piano...

  Visit MetalTabs.com for more metal tablature

bottom separator

Contact Us | Privacy Policy | Disclaimer | Legal Notice
Copyright © 2001-2014 MetalTabs.com. All Rights Reserved.