top separator

Home

Forum

What's New

Submit a Tab

FAQ

Links

Contact Us

Link to Us

MetalTabs.com logo

Bands

0-9

A

B

C

D

E

F

G

H

I

J

K

L

M

N

O

P

Q

R

S

T

U

V

W

X

Y

Z

Search

What

Where
 

Exhumed - "Deathmask" Guitar Tab

Plain Text Version
More Exhumed Tabs

Hits: 5300
Rated: 4.80 out of 5 (5 votes)
Updated: 2004-03-05 17:26:51

 

By:

BestialWarrior

sendpm.gif

email.gif

Important note
This tab is available online because we obtained explicit permission from Exhumed or their label.


#----------------------------------PLEASE NOTE---------------------------------#
#This file is the author's own work and represents their interpretation of the #
#song. You may only use this file for private study, scholarship, or research. #
#Unless specified otherwise, this is NOT an official tab from the band members.#
#------------------------------------------------------------------------------#

  Visit MetalTabs.com for more metal tablature
  
Band:  (EXHUMED)
Album: (GORE METAL)
Song:  (DEATHMASK)

Copyright (c)  (RELAPSE) (1998)
Version 1.0 - (2-4-04)

Transcribed By: (BestialWarrior)
Email:           Bestialson2003@yahoo.com


.  - palm mute           /  - slide up to
\  - slide down to       ~  - vibrato
h  - hammer on           b  - Bend
p  - pull off            Suffixes for bend
t  - tap                 f  - full bend    h - half bend
ph - pinched harmonic    q  - quarter bend t - tap bend
*  - see comment         ^  - Hold bend    r release bend
x  - Stuccatto           ~  - vibrato bend
,  - slight palm mute    () - ghost note, sustained note
"  - tremolo note        <> - Trill
G  - Gallop

Tunning: Tune Low to High
6=B 5=E 4=A 3=D 2=Gf 1=B

Riff#1.Intro..Fast..
|--------------------------||
|--------------------------||
|--------------------------||
|--------------------------||
|4------4------4------4----||
|2-2222-2-2222-2-2222-2-2--||
   ....   ....   ....   .

Riff#2.
|----------------||
|----------------||
|----------------||
|----------------||
|3-----4-----7---||
|--3-2---4-6---3-||

Riff#3. Fast..
|--------------------------||
|--------------------------||
|--------------------------||
|--------------------------||
|----------------2222------||
|4444444433333333----111111||

Riff#4. Fast..
|--------------------------||
|--------------------------||
|--------------------------||
|----------------4444------||
|66666666555555552222333333||
|4444444433333333----111111||

Transition A.
|------||
|------||
|------||
|4-----||
|2-5-4-||
|--3-2-||

Riff#5.
|------------||
|------------||
|------------||
|-------4----||
|6-5--5-2-3--||
|4-3--3---1--||

Riff#6. Heavy/Steady pace..
|-------------------------------------------------------||
|-------------------------------------------------------||
|-------------------------------------------------------||
|-------------------------------------------------------||
|------------5-4-----4-----3---------5-4---------4-----3||
|0-0-0-0-0-0-3-2-0-0-2-0-0-1-0-0-0-0-3-2-0-0-0-0-2-0-0-1||
 . . . . . .     . .   . .   . . . .     . . . .   . .

Riff#7.Heavy..
|----------------------------------||
|----------------------------------||
|----------------------------------||
|----------------------------------||
|----5-4---5---2-3-----------------||
|0-0-3-2-0-3-0-0-1-1-1-1-1-111-1-1-||
 . .     .   .     . . . . ... . .
                            G
Riff#8a.Guitar 1.
|------------------------------------------------||
|------------------------------------------------||
|------------------------------------------------||
|------------------------------------------------||
|2-2-2-2-2-2-2-2-2-2-2-2-2-2-2-2-2-2-2-2-2-2-2-2-||
|0-0-0-0-0-0-0-0-0-0-0-0-0-0-0-0-0-0-0-0-0-0-0-0-||

Riff#8b. Guitar 2.
|--------------------||
|--------------------||
|--------------------||     Then both guitars play #8b.
|----6-7-------------||
|----4-5-7-----6-5-3-||
|000-----5-000-4-3-1-||
 ...       ...
  G         G

Repeat Riffs#3,4,5

Transition B.
|----------------||
|----------------||
|----------------||
|5-6-----7-8-----||
|3-4-5-6-5-6-7-6-||
|----3-4-----5-4-||

Repeat Riff#2.

Outro Riff..Basically the same as one, except with few more notes
and a chord..
|------------------------------||
|------------------------------||
|------------------------------||
|------------------------------||
|4------4------4------4------4-||
|2-2222-2-2222-2-2222-2-2222-2-||
   ....   ....   ....   ....

END

  Visit MetalTabs.com for more metal tablature

bottom separator

Contact Us | Privacy Policy | Disclaimer | Legal Notice
Copyright © 2001-2014 MetalTabs.com. All Rights Reserved.