top separator

Home

Forum

FAQ

Contact Us

Link to Us

MetalTabs.com logo

Bands

0-9

A

B

C

D

E

F

G

H

I

J

K

L

M

N

O

P

Q

R

S

T

U

V

W

X

Y

Z

Arch Enemy - "We Will Rise" Guitar Tab

Plain Text Version
More Arch Enemy Tabs

Hits: 7151
Rated: 4.00 out of 5 (13 votes)
Updated: 2004-03-05 17:17:39

By:

lolo666


#----------------------------------PLEASE NOTE---------------------------------#
#This file is the author's own work and represents their interpretation of the #
#song. You may only use this file for private study, scholarship, or research. #
#Unless specified otherwise, this is NOT an official tab from the band members.#
#------------------------------------------------------------------------------#

  Visit MetalTabs.com for more metal tablature
  
                      ARCH ENEMY  We will rise
                    From the Album ANTHEMS OF REBELLION

                        Version 1.0  February 2004

Transcribed by: lolo666

For Questions, Comments, Newest Version, or Corrections contact
Lolo666: at laurent_666@hotmail.com
         or http://www.metaltabs.fr.st

Amott, Amott.

Guit 1 Riff A1 3 times
C |--------------------------------------------------|
G |--------------------------------------------------|
D#|--13-13-13-13-13-13-13-13-13-13-13-13-13-13-13-13-|
A#|--------------------------------------------------|
F |--11-11-11-11-11-11-11-11-11-11-11-11-11-11-11-11-|
C |--------------------------------------------------|


--------------------------------------------------|
--------------------------------------------------|
--14-14-14-14-14-14-14-14-12-12-12-12-12-12-12-12-|
--------------------------------------------------|
--12-12-12-12-12-12-12-12-10-10-10-10-10-10-10-10-|
--------------------------------------------------|


----------------------------------|-----------------------------------|
----------------------------------|-----------------------------------|
--9-9-9-9-9-9-9-9-9-9-9-9-9-9-9-9-|--9-9-9-9-9-9-9-11-8-8-8-8-8-8-8-8-|
----------------------------------|-----------------------------------|
--7-7-7-7-7-7-7-7-7-7-7-7-7-7-7-7-|--7-7-7-7-7-7-7-9--6-6-6-6-6-6-6-6-|
----------------------------------|-----------------------------------|


-------------------|
-------------------|
--9----------------|
-------------------|
--7----------------|
-------------------|

Guit 2 Riff A2 3 times
C |----------------------------------|----------------------------------|
G |----------------------------------|----------------------------------|
D#|----------------------------------|----------------------------------|
A#|----------------------------------|--5-5-5-5-5-5-5-5-5-5-5-5-5-5-5-5-|
F |--2-2-2-2-2-2-2-2-2-2-2-2-2-2-2-2-|--3-3-3-3-3-3-3-3-3-3-3-3-3-3-3-3-|
C |--0-0-0-0-0-0-0-0-0-0-0-0-0-0-0-0-|----------------------------------|


----------------------------------|----------------------------------|
----------------------------------|----------------------------------|
----------------------------------|----------------------------------|
--2-2-2-2-2-2-2-2-2-2-2-2-2-2-2-2-|--4-4-4-4-4-4-4-4-4-4-4-4-4-4-4-4-|
--0-0-0-0-0-0-0-0-0-0-0-0-0-0-0-0-|--2-2-2-2-2-2-2-2-2-2-2-2-2-2-2-2-|
----------------------------------|----------------------------------|

-------------------|
-------------------|
-------------------|
-------------------|
--2----------------|
--0----------------|


Riff B
------------------------|----------------------------------|
------------------------|----------------------------------|
------------------------|----------------------------------|
------------------------|----------------------------------|
--------------------5h7-|----5---2-------3---2---0-----5h7-|
------------12/-5h7-----|--0---0---0-0-0-1-1-0-0---5h7-----|


--------------------------------|----------------------------------|
--------------------------------|----------------------------------|
--------------------------------|----------------------------------|
--------------------------------|----------------------------------|
----8---5-------5---3-------5h7-|----5---2-------3---2---0-----5h7-|
--0---0---0-0-0-3-0-1---5h7-----|--0---0---0-0-0-1-1-0-0---5h7-----|


---------------------------|
---------------------------|
---------------------------|
---------------------------|
----8---5-------5--3-------|
--0---0---0-0-0-3--1-------|


Riff C
----------------------------------------------|
----------------------------------------------|
----------------------------------------------|
----------------------------------------------|
------------------------------------------5h8-|
--0-0-0-0-0-0-0-0-0-0-0-0-0-0-0-0-0-0-5h7-----|


----------------------------------------------|
----------------------------------------------|
----------------------------------------------|
----------------------------------------------|
------------------------------------------5h7-|
--0-0-0-0-0-0-0-0-0-0-0-0-0-0-0-0-0-0-5h7-----|


----------------------------------------------|
----------------------------------------------|
----------------------------------------------|
----------------------------------------------|
------------------------------------------5h8-|
--0-0-0-0-0-0-0-0-0-0-0-0-0-0-0-0-0-0-5h7-----|


-----------------------------------|
-----------------------------------|
-----------------------------------|
-----------------------------------|
--------------------------2--------|
--0-0-0-0-0-0-0-0-0-0-0-0-0--------|

Riff A1 & A2 2 times
Riff B
Riff C
Riff A1 & A2 2 times

Riff D1 during Christopher Amott solo
--------------------|-------------------|--------------------|
--------------------|-------------------|--------------------|
--------------------|-------------------|--------------------|
--12----------------|--8----------------|--10----------------|
--10----------------|--6----------------|--8-----------------|
--------------------|-------------------|--------------------|


---------------------|--------------------|-------------------|
---------------------|--------------------|-------------------|
---------------------|--------------------|-------------------|
--7--------10--------|--12----------------|--8----------------|
--5--------8---------|--10----------------|--6----------------|
---------------------|--------------------|-------------------|

                                                         Solo Michael Amott
--------------------|---------------------|--------------------------10--12--|
--------------------|---------------------|----------------------12----------|
--------------------|---------------------|----------------------------------|
--10----------------|--7--------10--------|--9-9-9-9-9-9-9-9-9-9-------------|
--8-----------------|--5--------8---------|--7-7-7-7-7-7-7-7-7-7-------------|
--------------------|---------------------|----------------------------------|


----------------10--12--|--------------15--14--|----------------10----|
------------12----------|----------------------|------------12--------|
------------------------|----------------------|----------------------|
------------------------|----------------------|----------------------|
------------------------|----------------------|----------------------|
------------------------|----------------------|----------------------|


-----12-----12-----12-----12-----12----|---12-----12-----12-----12-----12-----|
-15b----15b----15b----15b----15b----15b|------15b----15b----15b----15b----15b-|
---------------------------------------|--------------------------------------|
---------------------------------------|--------------------------------------|
---------------------------------------|--------------------------------------|
---------------------------------------|--------------------------------------|


--12----12-17h12----12-17h12----12-17h12----12-17h12----12-17h12----12-15-17-|
-----15----------15----------15----------15----------15----------15----------|
-----------------------------------------------------------------------------|
-----------------------------------------------------------------------------|
-----------------------------------------------------------------------------|
-----------------------------------------------------------------------------|


--17b-----17--14------------------|-----------------------|
------------------15--12----------|--------10r---8--------|
-------------------------12/11----|--------11r---9--------|
----------------------------------|-----------------------|
----------------------------------|-----------------------|
----------------------------------|-----------------------|


Solo Christopher Amott


----------------------------|-------------------------|
--------------13------11~---|------------10------8~---|
----------------------------|-------------------------|
------12--13----------------|-----8--10---------------|
--10------------------------|--6----------------------|
----------------------------|-------------------------|


---------------------------|
-------------11------10~---|
---------------------------|
-----10--12----------------|
--8------------------------|
---------------------------|


------------------------------------------------------|
--11--10------11--10h11h10h11h10h11h10h11h10h11h10h11-|
----------12------------------------------------------|
------------------------------------------------------|
------------------------------------------------------|
------------------------------------------------------|


----------------------------|-------------------------|
--------------13r-----11~---|------------10r-----8~---|
----------------------------|-------------------------|
------12--13----------------|-----8--10---------------|
--10------------------------|--6----------------------|
----------------------------|-------------------------|


---------------------------|--18--15--17--18--17--15--18--15--17--18--17--15/-|
-------------11------10~---|--------------------------------------------------|
---------------------------|--------------------------------------------------|
-----10--12----------------|--------------------------------------------------|
--8------------------------|--------------------------------------------------|
---------------------------|--------------------------------------------------|

              Riff D2 during Michael Amott solo
--19~---------------------|----------------------------------|
--------------------------|----------------------------------|
--------------------------|----------------------------------|
--------------9-9-9-9-9-9-|--7-7-7-7-7-7-7-7-7-7-7-7-7-7-7-7-|
--------------7-7-7-7-7-7-|--5-5-5-5-5-5-5-5-5-5-5-5-5-5-5-5-|
--------------------------|----------------------------------|


----------------------------------|----------------------------------|
----------------------------------|----------------------------------|
----------------------------------|----------------------------------|
--5-5-5-5-5-5-5-5-5-5-5-5-5-5-5-5-|--4-4-4-4-4-4-4-4-4-4-4-4-4-4-4-4-|
--3-3-3-3-3-3-3-3-3-3-3-3-3-3-3-3-|--2-2-2-2-2-2-2-2-2-2-2-2-2-2-2-2-|
----------------------------------|----------------------------------|


----------------------------------|----------------------------------|
----------------------------------|----------------------------------|
----------------------------------|----------------------------------|
--9-9-9-9-9-9-9-9-9-9-9-9-9-9-9-9-|--5-5-5-5-5-5-5-5-5-5-5-5-5-5-5-5-|
--7-7-7-7-7-7-7-7-7-7-7-7-7-7-7-7-|--3-3-3-3-3-3-3-3-3-3-3-3-3-3-3-3-|
----------------------------------|----------------------------------|


----------------------------------|----------------------------------|
----------------------------------|----------------------------------|
----------------------------------|----------------------------------|
--7-7-7-7-7-7-7-7-7-7-7-7-7-7-7-7-|--4-4-4-4-4-4-4-4-7-7-7-7-7-7-7-7-|
--5-5-5-5-5-5-5-5-5-5-5-5-5-5-5-5-|--2-2-2-2-2-2-2-2-5-5-5-5-5-5-5-5-|
----------------------------------|----------------------------------|


-------------------|------------------|------------------|
-------------------|------------------|------------------|
-------------------|------------------|------------------|
--9----------------|------------------|------------------|
--7----------------|------------------|------------------|
-------------------|------------------|------------------|

Riff B
Riff A repeat to the end

1st end solo repeat to the end
--------------------------------------------------|
--------17-------17-------17-------17-------17----|
--14-16----14-16----14-16----14-16----14-16----14-|
--------------------------------------------------|
--------------------------------------------------|
--------------------------------------------------|


--------------------------------------------------|
--------20-------20-------20-------20-------20----|
--16-17----16-17----16-17----16-17----16-17----16-|
--------------------------------------------------|
--------------------------------------------------|
--------------------------------------------------|


--------------------------------------------------|
--------22-------22-------22-------22-------22----|
--17-21----17-21----17-21----17-21----17-21----17-|
--------------------------------------------------|
--------------------------------------------------|
--------------------------------------------------|


--------------------------------------------------|
--------24-------24-------------24-------24-------|
--21-23----21-23----21-23-20-23----20-23----20-23-|
--------------------------------------------------|
--------------------------------------------------|
--------------------------------------------------|


Second end solo
--------19-------17-------19~-------|
--15/17----17/15----15-17-----------|
------------------------------------|
------------------------------------|
------------------------------------|
------------------------------------|


--------22-------22-------22~-------|
--19/20----20/19----19/20-----------|
------------------------------------|
------------------------------------|
------------------------------------|
------------------------------------|

Full bend and tremolo pick
-22b---22b22b22b22b22b22b22b22b22b22b22b22b22b22b22b22b22b22b22b22b22b22b22b22b
-------------------------------------------------------------------------------
-------------------------------------------------------------------------------
-------------------------------------------------------------------------------
-------------------------------------------------------------------------------
-------------------------------------------------------------------------------

                                                   Release bend to 
--22b22b22b22b22b22b22b22b22b22b22b22b22b22b22b22b22~-------|
------------------------------------------------------------|
------------------------------------------------------------|
------------------------------------------------------------|
------------------------------------------------------------|
------------------------------------------------------------|


--17~-----------17r--15-|--17~-----15h17h15/14--15--14------|
------------------------|-------------------------------15--|
------------------------|-----------------------------------|
------------------------|-----------------------------------|
------------------------|-----------------------------------|
------------------------|-----------------------------------|


----------------------|------------------|
--17--------17/-------|------------------|
----------------------|------------------|
----------------------|------------------|
----------------------|------------------|
----------------------|------------------|


--------19-------17-------19------------|
--15/17----17/15----15/17---------10/12-|
----------------------------------------|
----------------------------------------|
----------------------------------------|
----------------------------------------|


--15----15-14r--14--12----------12-------|
-----12-----------------15~--------15h12-|
-----------------------------------------|
-----------------------------------------|
-----------------------------------------|
-----------------------------------------|


------------------------------------------------|
------------------------------------------------|
--14~-------------------------------------------|
---------------------------------------14-16-17-|
---------------------14-15-17-14-15-17----------|
------------14-15-17----------------------------|


-----------------------------------------------15-17-19----------15-17-19-|
-----------------------------15-17-19-16-17-19----------16-17-19----------|
-----------14-16-17-14-16-17----------------------------------------------|
--14-16-17----------------------------------------------------------------|
--------------------------------------------------------------------------|
--------------------------------------------------------------------------|


-----------17-19-20-22~-------22r--19-||
--17-19-20----------------------------||
--------------------------------------||
--------------------------------------||
--------------------------------------||
--------------------------------------||

  Visit MetalTabs.com for more metal tablature

bottom separator

Contact Us | Privacy Policy | Disclaimer
Copyright © 2001-2014 MetalTabs.com. All Rights Reserved.