top separator

Home

Forum

What's New

Submit a Tab

FAQ

Links

Contact Us

Link to Us

MetalTabs.com logo

Bands

0-9

A

B

C

D

E

F

G

H

I

J

K

L

M

N

O

P

Q

R

S

T

U

V

W

X

Y

Z

Search

What

Where
 

Katatonia - "In silence enshrined" Guitar Tab

Plain Text Version
More Katatonia Tabs

Hits: 6310
Rated: 3.40 out of 5 (5 votes)
Updated: 2004-03-05 17:09:01

 

By:

Lord_Seth

sendpm.gif

email.gif

Important note
This tab is available online because we obtained explicit permission from Katatonia or their label.


#----------------------------------PLEASE NOTE---------------------------------#
#This file is the author's own work and represents their interpretation of the #
#song. You may only use this file for private study, scholarship, or research. #
#Unless specified otherwise, this is NOT an official tab from the band members.#
#------------------------------------------------------------------------------#

  Visit MetalTabs.com for more metal tablature
  
Katatonia - In Silence Enshrined
                       From the Album Dance of December Souls
                       Copyright 1993 No Fashion Records



Transcribed by: Illuminati (Iván Lozano Torres)

For Questions, Comments, or Corrections contact:
 at ss_reinhard_heydrich@hotmail.com

.  - palm mute           /  - slide up to
\  - slide down to       ~  - vibrato
h  - hammer on           b  - Bend
p  - pull off            Suffixes for bend
t  - tap                 f  - full bend    h - half bend
ph - pinched harmonic    q  - quarter bend t - tap bend
*  - see comment         ^  - Hold bend    r release bend
x  - Stuccatto           ~  - vibrato bend
,  - slight palm mute    () - ghost note, sustained note
"  - tremolo note        <> - Trill

STANDARD TUNING E,A,D,G,B,E,


Riff A  From (begin) 0:00 to 0:59
E|--------------------------------|
B|--------------------------------|
G|--------------------------------|
D|-------------9--7--9--10--7--7--|
A|-2---7--8-----------------------|
E|-0------------------------------| x6


Riff B  From 0:59 to 1:52
E|-----------------------------------------|
B|-----------------------------------------|
G|-----------------------------------------|
D|-----------------------------------------|
A|--7--7-7-9-10--10-10-9-5--5-5-9-7--7-7---|
E|--5--5-5-7-8---8--8--7-3--3-3-7-5--5-5---| x6


Riff A x6   From 1:53 to 2:49


Riff C      From 2:50 to 3:14
E|--------------------------------------------|
B|--------------------------------------------|
G|-----------------------------------------7--|
D|---7--9--10--9--7-------7--9--10--9--7------|
A|-7-----------------7--7---------------------|
E|--------------------------------------------| x4

THEN I THINK THIS I'M NOT SURE From 3:14 to 3:33
Riff c'
E|------------------------------------------|
B|------------------------------------------|
G|-----9--10--9--7------10--9--7--10--9--5--|
D|-7-----------------7----------------------|
A|------------------------------------------|
E|------------------------------------------| x4

Riff C x4 From  3:33 to 3:51
 (with a little change in the second repeat you will figure it out)

Riff D From 3:52 to 4:04
E|--------------------------------------------------------------------------|
B|--------------------------------------------------------------------------|
G|-9/////10/////7/////9/////5/////7/////5--4--2--9--10--7--9--5--7--5--4--2-|
D|--------------------------------------------------------------------------|
A|--------------------------------------------------------------------------|
E|--------------------------------------------------------------------------|x2
pm                                               .  .   .  .  .  .  .  .  .

Riff D'From 4:05 to 4:30
E|---------------------------------------------------------
B|---------------------------------------------------------
G|-9--10--7--9--5--7--5--4--2--9--10--7--9--5--7--5--4--2--
D|---------------------------------------------------------
A|---------------------------------------------------------
E|---------------------------------------------------------

 --------------------------------------------------------|
 --------------------------------------------------------|
 -9--10--7--9--5--7--5--4--2--9--10--7--9--5--7--5--4--2-|
 --------------------------------------------------------|
 --------------------------------------------------------|
 --------------------------------------------------------| x2

Riff E From 4:31 to 4:55
E|---------------------------------------------------------------------
B|---------------------------------------------------------------------
G|---------------------------------------------------------------------
D|-7-7--7-7-7-7--7-7-7-7--7-7--9-10--3-3--3-3-3-3--3-3-3-3--3-3--9-10--
A|---------------------------------------------------------------------
E|---------------------------------------------------------------------

 -----------------------------------------------------------------------|
 -----------------------------------------------------------------------|
 -----------------------------------------------------------------------|
 -9-9--9-9-9-9--9-9-9-9--9-9--9-10--5-5--5-5-5-5--5-5-5-5--5-5--9-7-5-3-|
 -----------------------------------------------------------------------|
 -----------------------------------------------------------------------|

Riff D' x2 from 4:56 to 5:21

Riff A  x6 from 5:22 to 6:31 (end)

That's it  pretty cool song  very very sad and easy to play

  Visit MetalTabs.com for more metal tablature

bottom separator

Contact Us | Privacy Policy | Disclaimer | Legal Notice
Copyright © 2001-2014 MetalTabs.com. All Rights Reserved.