top separator

Home

Forum

What's New

Submit a Tab

FAQ

Links

Contact Us

Link to Us

MuSpy.com

MetalTabs.com logo

Bands

0-9

A

B

C

D

E

F

G

H

I

J

K

L

M

N

O

P

Q

R

S

T

U

V

W

X

Y

Z

Search

What

Where
 

Summoning - "Beyond bloodred horizons" Guitar Tab

Plain Text Version
More Summoning Tabs

Hits: 4218
Rated: 4.00 out of 5 (1 vote)
Updated: 2004-03-05 17:07:20

 

Important note
This tab is available online because we obtained explicit permission from Summoning or their label.


#----------------------------------PLEASE NOTE---------------------------------#
#This file is the author's own work and represents their interpretation of the #
#song. You may only use this file for private study, scholarship, or research. #
#Unless specified otherwise, this is NOT an official tab from the band members.#
#------------------------------------------------------------------------------#

  Visit MetalTabs.com for more metal tablature
  
Band:  Summoning
Album: Lugburz
Song:  Beyond Bloodred Horizons


Transcribed By: trey dixon
Email:          moonlitdungeon@aol.com


.  - palm mute           /  - slide up to
\  - slide down to       ~  - vibrato
h  - hammer on           b  - Bend
p  - pull off            Suffixes for bend
t  - tap                 f  - full bend    h - half bend
ph - pinched harmonic    q  - quarter bend t - tap bend
*  - see comment         ^  - Hold bend    r release bend
x  - Stuccatto           ~  - vibrato bend
,  - slight palm mute    () - ghost note, sustained note
"  - tremolo note        <> - Trill

tune down 1 whole step (DGCFAD- low to high)


This tab is for lead guitar (mainly).  The very beginning is rhythm,
but if youre playing alone you can play it before the lead comes in...
But you didnít need me to tell you that, did you

The riffs are listed one time each in the same order as the song

Power chords here!!!!
|-------------------------------------------------------------------|
|-------------------------------------------------------------------|
|-------------------------------------------------------------------|
|-------------------------------------------------------------------|
|-8-6-8-6-8-9-7-9-10-9----------------------------------------------|
|-------------------------------------------------------------------|

all tremolo here
|-------------------------------------------------------------------|
|-6---6----------6-7-6----------------------------------------------|
|---5---3-6-3-6--------3-6-3-6--------------------------------------|
|-------------------------------------------------------------------|
|-------------------------------------------------------------------|
|-------------------------------------------------------------------|

All tremolo.  On third time playing this remove the last two notes
|---7-8-7---7-8-7---------------------------------------------------|
|-5-------5---------7-8-7---7-8-------------------------------------|
|-----------------5-------8-----------------------------------------|
|-------------------------------------------------------------------|
|-------------------------------------------------------------------|
|-------------------------------------------------------------------|

All tremolo
|-------------------------------------------------------------------|
|-5---5-3-5-3---7-5-7-5---5-3-5-3-----------------------------------|
|---4---------4---------4---------4---------------------------------|
|-------------------------------------------------------------------|
|-------------------------------------------------------------------|
|-------------------------------------------------------------------|

Power chord  here!!!!  This is the part at 58 sec. on the song
|-------------------------------------------------------------------|
|-------------------------------------------------------------------|
|-------------------------------------------------------------------|
|-------------------------------------------------------------------|
|-7-5-3-2-3-5-------------------------------------------------------|
|-------------------------------------------------------------------|

song ends with this Power chord!!!
|-------------------------------------------------------------------|
|-------------------------------------------------------------------|
|-------------------------------------------------------------------|
|-------------------------------------------------------------------|
|--7----------------------------------------------------------------|
|-------------------------------------------------------------------|
END

  Visit MetalTabs.com for more metal tablature

bottom separator

Contact Us | Privacy Policy | Disclaimer | Legal Notice
Copyright © 2001-2014 MetalTabs.com. All Rights Reserved.