top separator

Home

Forum

What's New

Submit a Tab

FAQ

Links

Contact Us

Link to Us

MetalTabs.com logo

Bands

0-9

A

B

C

D

E

F

G

H

I

J

K

L

M

N

O

P

Q

R

S

T

U

V

W

X

Y

Z

Search

What

Where
 

Antimatter - "The Last Laugh" Guitar Tab

Plain Text Version
More Antimatter Tabs

Hits: 3352
Rated: 5.00 out of 5 (1 vote)
Updated: 2004-03-05 16:31:36

 

By:

sendpm.gif

email.gif

Important note
This tab is available online because we obtained explicit permission from Antimatter or their label.


#----------------------------------PLEASE NOTE---------------------------------#
#This file is the author's own work and represents their interpretation of the #
#song. You may only use this file for private study, scholarship, or research. #
#Unless specified otherwise, this is NOT an official tab from the band members.#
#------------------------------------------------------------------------------#

  Visit MetalTabs.com for more metal tablature
  
Artist: Antimatter
Song: The Last Laugh
Album: Saviour
Tabbed by: Marcin Golba


Intro:
|---------------------|
|--0---------0--------|
|----2---------2------|
|------3---------2----|
|---------------------|
|---------------------|

Verse:
|------------------|-------------|
|--0--------0------|------0------|
|----2--------2----|-------------| 2x
|------3--------2--|---0---------|
|------------------|----------2--|
|------------------|-------------|
                 3x|

Chorus:
|--0------0--|
|--0------0--|
|--2------2--|
|--3------2--|
|--3------0--|
|--1---------|



-------------------------------------------------
www.betteroffdead.prv.pl

  Visit MetalTabs.com for more metal tablature

bottom separator

Contact Us | Privacy Policy | Disclaimer | Legal Notice
Copyright © 2001-2014 MetalTabs.com. All Rights Reserved.