top separator

Home

Forum

What's New

Submit a Tab

FAQ

Links

Contact Us

Link to Us

MetalTabs.com logo

Bands

0-9

A

B

C

D

E

F

G

H

I

J

K

L

M

N

O

P

Q

R

S

T

U

V

W

X

Y

Z

Search

What

Where
 

Falkenbach - " As Long As Winds Will Blow" Guitar Tab

Plain Text Version
More Falkenbach Tabs

Hits: 8083
Rated: 4.40 out of 5 (5 votes)
Updated: 2004-03-05 04:51:59

 

By:

Darkenelf

sendpm.gif

email.gif

Important note
This tab is available online because we obtained explicit permission from Falkenbach or their label.


#----------------------------------PLEASE NOTE---------------------------------#
#This file is the author's own work and represents their interpretation of the #
#song. You may only use this file for private study, scholarship, or research. #
#Unless specified otherwise, this is NOT an official tab from the band members.#
#------------------------------------------------------------------------------#

  Visit MetalTabs.com for more metal tablature
  
Band: Falkenbach
Album: Ok Nefna Tysvar Ty
Song: As long as Winds will blow
Tabbed by: Martijn Wietsma
Tab Date: 04-03-2004
Email: northerland@yahoo.co.uk
Version: 0.1

Standard E Tuning

riff A
|-----------------------------------------------------------|
|-----------------------------------------------------------|
|-----------------------------------------------------------|
|----------------------4------------------------2-----------|
|-6-666--6-666--6-666--2---4-444--4-444--4-444--2-----------|
|-4-444--4-444--4-444------2-222--2-222--2-222--0-----------|
                                                (4x)
riff B (0:27)
|-----------------------------------------------------------|
|-----------------------------------------------------------|
|-----------------------------------------------------------|
|-----------------------------------------------------------|
|-6-666--6-666--8-9---4-444--4-444--4-2---------------------|
|-4-444--4-444--6-7---2-222--2-222------6-4--2/-------------|
                                                (4x)
repeat riff A 4x (0:52)
repeat riff B 4x (1:18)

riff C (Bass)...but here is my part for guitar what sounds the same.
(1:42)
|-----------------------------------------------------------|
|-----------------------------------------------------------|
|-----------------------------------------------------------|
|-----------------------------------------------------------|
|-6--6-6--6-6--4/-----6--6-6--6-6--4/-----------------------|
|-4--4-4--4-4--2/-----4--4-4--4-4--2/-----------------------|
                                                (2x)
riff D (1:55)
|-----------------------------------------------------------|
|-----------------------------------------------------------|
|-----------------------------------------------------------|
|-4-444-44--------------4-444-44--4-444-44------------------|
|-2-222-22--4/6-666-66--2-222-22--2-222-22-/8---------------|
|-----------2/4-444-44----------------------6---------------|
                                                (2x)
riff E (2:21)
|-----------------------------------------------------------|
|-----------------------------------------------------------|
|-----------------------------------------------------------|
|-----------4-6-666-66-4---------------4-6-666-66-4---------|
|-6-666-66--2-4-444-44-2-----6-666-66--2-4-444-44-2---------|
|-4-444-44-------------------4-444-44-----------------------|
                                                (2x)
repeat riff C 2x (2:46)

riff F (last 8 notes aren't right, but i don't know) (2:59)
|-----------------------------------------------------------|
|-----------------------------------------------------------|
|-----------------------------------------------------------|
|-4-444-44--------------4-444-44----------------------------|
|-2-222-22--4/6-666-66--2-222-22-2-2h4p2----2---------------|
|-----------2/4-444-44-------------------6~---6-4-----------|
                                                (2x)
repeat riff B 4x (3:24)

riff G (ending chords)
|-----------------------------------------------------------|
|-----------------------------------------------------------|
|-----------------------------------------------------------|
|-----------------------------------------------------------|
|-4/6-------------------------------------------------------|
|-2/4-------------------------------------------------------|

  Visit MetalTabs.com for more metal tablature

bottom separator

Contact Us | Privacy Policy | Disclaimer | Legal Notice
Copyright © 2001-2014 MetalTabs.com. All Rights Reserved.