#----------------------------------PLEASE NOTE---------------------------------#
#This file is the author's own work and represents their interpretation of the #
#song. You may only use this file for private study, scholarship, or research. #
#Unless specified otherwise, this is NOT an official tab from the band members.#
#------------------------------------------------------------------------------#

  Visit MetalTabs.com for more metal tablature
  
Band:  Acid Bath
Album: Paegan Terrorism Tactics
Song:  Bleed Me An Ocean

Copyright (c)  Rotten Records 1996
Version 1.0 - (DATE)

Transcribed By: Herbmeister420
Email:          Herbmeister420@bandhunt.com

.  - palm mute
/  - slide up to
\  - slide down to
h  - hammer on
b  - Bend
p  - pull off

Tuning CGCFAD
Riff 1
|---------------------------------------|
|---------------------------------------|
|---------------------------------------|
|-7-7-7\-5/-10-10\-5\-3-3-3-/5-6-5-5h6-|
|-7-7-7\-5/-10-10\-5\-3-3-3-/5-6-5-5h6-|
|-7-7-7\-5/-10-10\-5\-3-3-3-/5-6-5-5h6-|

Fill 1
|-------------------------|
|-------------------------|
|-------------------------|
|-3-3-3-3-3-3-3-3-2-2-2-2-|
|-3-3-3-3-3-3-3-3-2-2-2-2-|
|-3-3-3-3-3-3-3-3-2-2-2-2-|

Riff 2
|------------------------------------------------------|
|------------------------------------------------------|
|------------------------------------------------------|
|-7-7-7-7--7-7\-5-5/-7-7-7-7--7-7\-3-3-3-3---2-2-2-----|
|-7-7-7-7--7-7\-5-5/-7-7-7-7--7-7\-3-3-3---3-2-2-2-3-2-|
|-7-7-7-7--7-7\-5-5/-7-7-7-7--7-7\-3-3-3-----2-2-2-----|
                . .
Riff 3
|-------------------------------|
|-------------------------------|
|-------------------------------|
|-------------------------------|
|-7-5/10-10-10-0-35555-0-5/6666-|
|-7-5/10-10-10-0-35555-0-5/6666-|
               . ..    . .
Riff 4
|--------------------------------|
|--------------------------------|
|--------------------------------|
|--------------------------------|
|-7-5/10-10-10-2/-3-3\-2-6-6-6-6-|
|-7-5/10-10-10-2/-3-3\-2-6-6-6-6-|
Fill 2
|-----------|
|-----------|
|-----------|
|-7-7-----7-|
|-7-7-6-5-7-|
|-7-7-6-5-7-|
      . .
Riff 2 Variation
|--------------------------------------------------|
|--------------------------------------------------|
|--------------------------------------------------|
|-7-7-7-7--7-7\-5-5/-7-7-7-7--7-7\-3-3-3-3---2-2-2-|
|-7-7-7-7--7-7\-5-5/-7-7-7-7--7-7\-3-3-3---3-2-2-2-|
|-7-7-7-7--7-7\-5-5/-7-7-7-7--7-7\-3-3-3-----2-2-2-|
                . .
Riff 5
|---------------------------------------------------------|
|---------------------------------------------------------|
|---------------------------------------------------------|
|-2-2-2/-6-6-6\-2-2-2/-5-5-5\-2-/-6-6-6-6\-2-2-2-2-5-4-3-|
|-2-2-2/-6-6-6\-2-2-2/-5-5-5\-2-/-6-6-6-6\-2-2-2-2-5-4-3-|
|-2-2-2/-6-6-6\-2-2-2/-5-5-5\-2b/-6-6-6-6\-2-2-2-2-5-4-3-|
                                                    . . .
Riff 6
|---------------------------------------------------------------------|
|---------------------------------------------------------------------|
|---------------------------------------------------------------------|
|-8-7-7-7-7/-15-15-15\-8-7-7-7-7\-6-6-6-\-3-3-3-3-3-3-3-2-2-2-2-2-2-2-|
|-8-7-7-7-7/-15-15-15\-8-7-7-7-7\-6-6-6-\-3-3-3-3-3-3-3-2-2-2-2-2-2-2-|
|-8-7-7-7-7/-15-15-15\-8-7-7-7-7\-6-6-6-\-3-3-3-3-3-3-3-2-2-2-2-2-2-2-|

|-------------------------------------------------|
|-------------------------------------------------|
|-------------------------------------------------|  All palm muted.
|-------------------------------------------------|
|-55-55-55-55-44-44-44-44-33-33-33-33-22-22-22-22-|
|-55-55-55-55-44-44-44-44-33-33-33-33-22-22-22-22-|
END

Really great song!

  Visit MetalTabs.com for more metal tablature