top separator

Home

Forum

What's New

Submit a Tab

FAQ

Links

Contact Us

Link to Us

MuSpy.com

MetalTabs.com logo

Bands

0-9

A

B

C

D

E

F

G

H

I

J

K

L

M

N

O

P

Q

R

S

T

U

V

W

X

Y

Z

Search

What

Where
 

Burzum - "En ring til aa herske" Guitar Tab

Plain Text Version
More Burzum Tabs

Hits: 9019
Rated: 3.50 out of 5 (6 votes)
Updated: 2006-08-17 05:19:02

 

By:

sendpm.gif

email.gif

Important note
This tab is available online because we obtained explicit permission from Burzum or their label.


#----------------------------------PLEASE NOTE---------------------------------#
#This file is the author's own work and represents their interpretation of the #
#song. You may only use this file for private study, scholarship, or research. #
#Unless specified otherwise, this is NOT an official tab from the band members.#
#------------------------------------------------------------------------------#

  Visit MetalTabs.com for more metal tablature
  
Band:  BURZUM
Album: Det Som En Gang Var
Song:  En Ring Til Aa Herske


Transcribed By: (Juha Räsänen)
Email:          (sofisti@postiloota.net)

Notes:

   I've made a few updates. Listen to the song for the correct rhythm.

Key:

   / = Slide
   . = Palm Mute




Riff 1                     Ending 1
|--------------------------|---------|
|--------------------------|---------|
|--------------------------|---------|
|-9-------5-------9-----4--|-/3-3-/2-|
|-7-------3-------7-----4--|-/3-3-/2-|
|-0-------0-------0-----2--|-/1-1-/0-|

                           Ending 2
                           |---------|
                           |---------|
                           |---------|
                           |-/5-5-/2-|
                           |-/5-5-/2-|
                           |-/3-3-/0-|



Riff 1b                    Ending 1
|--------------------------|---------|
|--------------------------|---------|
|--------------------------|---------|
|-9-------5-------9-----4--|-/3-3-/2-|
|-7-------3-------7-----4--|-/3-3-/2-|
|-0---0-0-0---0-0-0---0-2--|-/1-1-/0-|
      . .     . .     .
                           Ending 2
                           |---------|
                           |---------|
                           |---------|
                           |-/5-5-/2-|
                           |-/5-5-/2-|
                           |-/3-3-/0-|


(I don't think Varg uses powerchords in the riffs 1a and 1b, but I like it
better this way.)


Riff 2 (not sure about the slides.. doesn't really matter, though)
|-----------------------------------|
|-----------------------------------|
|-----------------------------------|
|-2-----3-3---2---2-----4---/5-5-/2-|
|-2-----3-3---2---2-----4---/5-5-/2-|
|-0---0-1-1-0-0---0---0-2---/3-3-/0-|
      .     .         .


Riff 3
|------------------------------------------------------------------------
|------------------------------------------------------------------------
|-----0-------0-------0-------0-------0-------0-------0-------0----------
|-------2-------2-------2-------2-------2-------2-------2-------2--------
|---2-------2-------2-------2-------2-------2-------2-------2------------
|-0-------0-------0-------0-------0-------0-------0-------0--------------

|------------------------------------------------------------------------|
|------------------------------------------------------------------------|
|-----0-------0-------0-------0-------0-------0-------0-------0----------|
|-------5-------5-------5-------5-------4-------4-------4-------4--------|
|---5-------5-------5-------5-------4-------4-------4-------4------------|
|-3-------3-------3-------3-------2-------2-------2-------2--------------|


Fill 1
|---------------------------------|
|---------------------------------|
|---------------------------------|
|-2-------------------------------|
|-2-------------------------------|
|-0-------------------------------|



Riff 4 (might or might not be correct, but sounds close enough for me)
|-----------------------------------------------------------------|
|-----------------------------------------------------------------|
|-----------------------------------------------------------------|
|-0---------------2---------------0---------------2---------------|
|-2---------------2---------------0---------------2---------------|
|-1---------------0---------------1---------------0---------------|



Riff 5
|-----------------------------------------------------------------
|-----------------------------------------------------------------
|-------0-----0-------0-------0-------0-------0-------0-------0---
|-----4-----4---4---4---4---4---4---4---4---4---4---4---4---4---4-
|---2-----2-------2-------2-------2-------2-------2-------2-------
|-0---------------------------------------------------------------

|-----------------------------------------------------------------|
|-----------------------------------------------------------------|
|-------2-----2-------2-------2-------2-------2-------2-------2---|
|-----5-----5---5---5---5---5---5---5---5---5---5---5---5---5---5-|
|---3-----3-------3-------3-------3-------3-------3-------3-------|
|-0---------------------------------------------------------------|



Riff 6 (with or without palm mutes, you decide)
|-0---------------0---------------0---------------0---------------
|-0---------------0---------------0---------------0---------------
|-0---------------0---------------0---------------0---------------
|-2---2-2-2-2-2-2-2---2-2-2-2-2-2-2---2-2-2-2-2-2-2---2-2-2-2-2-2-
|-2---2-2-2-2-2-2-2---2-2-2-2-2-2-2---2-2-2-2-2-2-2---2-2-2-2-2-2-
|-0---0-0-0-0-0-0-0---0-0-0-0-0-0-0---0-0-0-0-0-0-0---0-0-0-0-0-0-

|-----------------------------------------------------------------
|-----------------------------------------------------------------
|-4---------------4---------------2---------------2---------------
|-2---2-2-2-2-2-2-2---2-2-2-2-2-2-2---2-2-2-2-2-2-2---2-2-2-2-2-2-
|-2---2-2-2-2-2-2-2---2-2-2-2-2-2-2---2-2-2-2-2-2-2---2-2-2-2-2-2-
|-0---0-0-0-0-0-0-0---0-0-0-0-0-0-0---0-0-0-0-0-0-0---0-0-0-0-0-0-



Play in this order:

1  -  Riff 1  X 4

2  -  Riff 1b X 4

3  -  Riff 2  X 4 - One guitar only! After this, the second guitar joins.

4  -  Riff 2  X 8 - Both guitars

5  -  Riff 1  X 4

6  -  Riff 1b X 4

7  -  Riff 2  X 12

8  -  Riff 3  X 3½ - Play first three times the whole riff, then end with
                     the first half of it...
9  -  Riff 1  X 4

10 -  Fill 1

11 -  Riff 4  X 2 - The second time leave the final chord and just start
                    with the Riff 5
12 -  Riff 5  X 4

13 -  Riff 6  X 4

14 -  Riff 3  X 4


 -- That's it --

  Visit MetalTabs.com for more metal tablature

bottom separator

Contact Us | Privacy Policy | Disclaimer | Legal Notice
Copyright © 2001-2014 MetalTabs.com. All Rights Reserved.