top separator

Home

Forum

What's New

Submit a Tab

FAQ

Links

Contact Us

Link to Us

MuSpy.com

MetalTabs.com logo

Bands

0-9

A

B

C

D

E

F

G

H

I

J

K

L

M

N

O

P

Q

R

S

T

U

V

W

X

Y

Z

Search

What

Where
 

Exhumed - "Blazing Corpse" Guitar Tab

Plain Text Version
More Exhumed Tabs

Hits: 4057
Updated: 2004-03-03 15:31:04

 

By:

BestialWarrior

sendpm.gif

email.gif

Important note
This tab is available online because we obtained explicit permission from Exhumed or their label.


#----------------------------------PLEASE NOTE---------------------------------#
#This file is the author's own work and represents their interpretation of the #
#song. You may only use this file for private study, scholarship, or research. #
#Unless specified otherwise, this is NOT an official tab from the band members.#
#------------------------------------------------------------------------------#

  Visit MetalTabs.com for more metal tablature
  
Band:  (EXHUMED)
Album: (GORE METAL)
Song:  (BLAZING CORPSE)

Copyright (c)  (RELAPSE) (1998)
Version 1.0 - (AUGUST 1998)

Transcribed By: (BestialWarrior)
Email:           Bestialson2003@yahoo.com


.  - palm mute           /  - slide up to
\  - slide down to       ~  - vibrato
h  - hammer on           b  - Bend
p  - pull off            Suffixes for bend
t  - tap                 f  - full bend    h - half bend
ph - pinched harmonic    q  - quarter bend t - tap bend
*  - see comment         ^  - Hold bend    r release bend
x  - Stuccatto           ~  - vibrato bend
,  - slight palm mute    () - ghost note, sustained note
"  - tremolo note        <> - Trill
S  - Sustained Note.

Tunning: Tune Low to High:
6=B 5=E 4=A 3=D 2=G flat 1=B

Intro.
                         Riff#1. Fast sliding..
|--|                     |--------------||
|--|                     |--------------||
|--| Bass comes in.      |--------------||
|--|                     |------------7-||
|6-|                     |6/7-7/8-8/9-5-||
|4-|                     |4/5-5/6-6/7---||

Riff#2. Heavy/slightly fast..
|--------------------------||
|--------------------------||
|--------------------------||
|------3-----------------7-||
|2-2-2-1-2-2-2-5-5-5-7-7-5-||
|0-0-0---0-0-0-3-3-3-5-5---||


Riff#3. Heavy..            Fill.
|-----------|-----------|---------||
|-----------|-----------|---------||
|-----------|-----------|---------||
|-----------|-----------|---------||
|4-4-4-4-4-4|5-5-5-3-3-3|55553333-||
|2-2-2-2-2-2|3-3-3-1-1-1|33331111-||
     .     .     .     . ........

Riff#4. Grind!!..                                      Fill.
|--------------------------------------|------------|------T----T--||
|--------------------------------------|------------|-----(3)--(3)-||
|--------------------------------------|------------|----1-2--3-4--||
|222222----------------------------33--|------------|--------------||
|------------------4444442222111111--33|444444444444|4444----------||
|------666655553333--------------------|------------|--------------||

Riff#5.Heavy/... Fill.
|-----------|---|----||
|-----------|---|----||
|-----------|---|----||
|-----------|---|4---||
|2---6-5---6|5-3|2-5-||
|0-0-4-3-0-4|3-1|--3-||
   .     .
Transition
|---------------------||
|---------------------||
|---------------------||
|-------------------7-||
|2--------5-5-5-7-7-5-||
|0--------3-3-3-5-5---||
 S

Repeat Riffs#2,3,4

End Riff..
|------------------||
|------------------||
|------------------||
|------------------||
|2---6-5---6-5-3-2-||
|0-0-4-3-0-4-3-1-0-||
   .     .


END

  Visit MetalTabs.com for more metal tablature

bottom separator

Contact Us | Privacy Policy | Disclaimer | Legal Notice
Copyright © 2001-2014 MetalTabs.com. All Rights Reserved.