top separator

Home

Forum

What's New

Submit a Tab

FAQ

Links

Contact Us

Link to Us

MetalTabs.com logo

Bands

0-9

A

B

C

D

E

F

G

H

I

J

K

L

M

N

O

P

Q

R

S

T

U

V

W

X

Y

Z

Search

What

Where
 

Moonsorrow - "Ukkosenjumalan Poika" Guitar Tab

Plain Text Version
More Moonsorrow Tabs

Hits: 6087
Rated: 3.00 out of 5 (5 votes)
Updated: 2004-03-03 15:09:10

 

By:

Darkenelf

sendpm.gif

email.gif

Important note
This tab is available online because we obtained explicit permission from Moonsorrow or their label.


#----------------------------------PLEASE NOTE---------------------------------#
#This file is the author's own work and represents their interpretation of the #
#song. You may only use this file for private study, scholarship, or research. #
#Unless specified otherwise, this is NOT an official tab from the band members.#
#------------------------------------------------------------------------------#

  Visit MetalTabs.com for more metal tablature
  
Band: Moonsorrow
Album: Suden Uni
Song: Ukkosenjumalan Poika
Tabbed by: Martijn Wietsma
Tab Date: 24-01-2004
Version: 0.1
Email: northerland@yahoo.co.uk

h = hammer
p = pick
. = palm mute
/ = forward slide
\ = backward slide
~ = pull string up
^ = long note

Standard E Tuning

riff A
|---------------------------------------------------------------|
|---------------------------------------------------------------|
|---------------------------------------------------------------|
|-22-2^---------9---7---5-------4----7----9---------------------|
|-22-2----------7---5---3-------2----5----7---------------------|
|-00-0------00----0---0-----00----0----0------------------------|
  ..        ..    .   .     ..    .    .

|---------------------------------------------------------------|
|---------------------------------------------------------------|
|---------------------------------------------------------------|
|-----9----7----5---------4---------2---------------------------|
|-----7----5----3---------2--7/9\5--2---------------------------|
|-00----0----0--------00-----5/7\3--0---------------------------|
  ..    .    .        ..

|---------------------------------------------------------------|
|---------------------------------------------------------------|
|---------------------------------------------------------------|
|-----9---7---5-------4----7----9-------------------------------|
|-----7---5---3-------2----5----7-------------------------------|
|-00----0---0-----00----0----0----------------------------------|
  ..    .   .     ..    .    .

|---------------------------------------------------------------|
|---------------------------------------------------------------|
|---------------------------------------------------------------|
|-----9----7----5---------4---------2---------4---------2^------|
|-----7----5----3---------2--7/9\5--2---------2--7/9\5--2-------|
|-00----0----0--------00-----5/7\3--0-----00-----5/7\3--0-------|
  ..    .    .        ..                  ..

riff B (0:43)
|---------------------------------------------------------------|
|---------------------------------------------------------------|
|---------------------------------------------------------------|
|-9--5/7--7-5h7--9--5/7--7-5h7--9--5/7--7-5h7--7-7----5---------|
|-7--3/5---------7--3/5---------7--3/5---------5-5-5--3---------|
|---------------------------------------------------------------|
 							(4x)
riff C (1:17)
|---------------------------------------------------------------|
|---------------------------------------------------------------|
|---------------------------------------------------------------|
|----------------------222--7--7-5------------------------------|
|----------2222--------222--5-----------------------------------|
|-0000-0h3------5555---000--------------------------------------|
                       ...				(4x)
repeat riff B 4x
repeat riff C 4x

riff D (2:27)
|-7-5--7-5--7-5-------------------------------------------------|
|---------------------------------------------------------------|
|-----------------7--7-7----------------------------------------|
|-----------------5--5-5-7-7-7/9--------------------------------|
|------------------------5-5-5/7--------------------------------|
|---------------------------------------------------------------|
							(2x)
riff E (2:47)
|---------------------------------------------------------------|
|---------------------------------------------------------------|
|-7-6-7-6-7-6--------------7-6-7-6-7-6--7--7-7------------------|
|-5-4-5-4-5-4--5--7--9-----5-4-5-4-5-4--5--5-5--7/9-------------|
|--------------3--5--7--------------------------5/7-------------|
|---------------------------------------------------------------|
							(4x)
riff F (3:20)
|---------------------------------------------------------------|
|---------------------------------------------------------------|
|-----------------------------------------------7-6-7-6---------|
|-9--9--999-9---9--9--999-9---4-5--5--555--5-5--5-4-5-4-(0)-----|
|-7--7--777-7---7--7--777-7---2-3--3--333--3-3------------------|
|---------------------------------------------------------------|
							(4x)
riff G (3:51)
|---------------------------------------------------------------|
|---------------------------------------------------------------|
|-7-6-9---7-6-11---7-6-9----------------------------------------|
|-5-4-7---5-4--9---5-4-7--5p4-4h5-4-2---------------------------|
|---------------------------------------------------------------|
|---------------------------------------------------------------|
							(4x)
repeat riff F 4x
repeat riff C 4x

riff H (5:15)
|---------------------------------------------------------------|
|---------------------------------------------------------------|
|-----9-----10------9------12------9-----10-----9-10-7-9--------|
|-----7------8------7------10------7------8-----7--8-5-7--------|
|-00----00------00-----00-------00----00-----0------------------|
|---------------------------------------------------------------|

|---------------------------------------------------------------|
|---------------------------------------------------------------|
|-----9/10------9/12-----9-10-7-9-------------------------------|
|-----7/-8------7/10-----7--8-5-7-------------------------------|
|-00--------00--------0-----------------------------------------|
|---------------------------------------------------------------|

riff I (5:23)
|---------------------------------------------------------------|
|---------------------------------------------------------------|
|-----9-----10------9------12------9-----10-----9-10-7-9--------|
|-----7------8------7------10------7------8-----7--8-5-7--------|
|-00----00------00-----00-------00----00-----0------------------|
|---------------------------------------------------------------|
							(4x)
riff J (5:40)
|---------------------------------------------------------------|
|---------------------------------------------------------------|
|-9--7-10-9^---9--7-10-9^----9-----7/9--------------------------|
|-7--5--8-7----7--5--8-7-----7--00-5/7--------------------------|
|-------------------------------..------------------------------|
|---------------------------------------------------------------|
							(1x)
riff K (5:44)
|---------------------------------------------------------------|
|---------------------------------------------------------------|
|-9--7-10-9--99999999---9--7-10-9--99999999---9-----7/9---------|
|-7--5--8-7--77777777---7--5--8-7--77777777---7--00-5/7---------|
|------------------------------------------------..-------------|
|---------------------------------------------------------------|
							(3x)
riff L (ending riff)
|---------------------------------------------------------------|
|---------------------------------------------------------------|
|-9-----7/9-----------------------------------------------------|
|-7--00-5/7-----------------------------------------------------|
|----..---------------------------------------------------------|
|---------------------------------------------------------------|

  Visit MetalTabs.com for more metal tablature

bottom separator

Contact Us | Privacy Policy | Disclaimer | Legal Notice
Copyright © 2001-2014 MetalTabs.com. All Rights Reserved.