top separator

Home

Forum

What's New

Submit a Tab

FAQ

Links

Contact Us

Link to Us

MetalTabs.com logo

Bands

0-9

A

B

C

D

E

F

G

H

I

J

K

L

M

N

O

P

Q

R

S

T

U

V

W

X

Y

Z

Search

What

Where
 

Ildjarn - "Eksistensens Jeger" Guitar Tab

Plain Text Version
More Ildjarn Tabs

Hits: 4899
Rated: 3.00 out of 5 (3 votes)
Updated: 2004-07-14 04:28:06

 

By:

Decrepify

sendpm.gif

email.gif

Important note
We did our best to reach Ildjarn and ask for their permission to publish this tab. Unfortunately they did not respond to our requests or we could not find a way to contact them. This tab is available online until Ildjarn tells us to take it down.


#----------------------------------PLEASE NOTE---------------------------------#
#This file is the author's own work and represents their interpretation of the #
#song. You may only use this file for private study, scholarship, or research. #
#Unless specified otherwise, this is NOT an official tab from the band members.#
#------------------------------------------------------------------------------#

  Visit MetalTabs.com for more metal tablature
  
Ildjarn - Eksistensens Jeger
By Tuomas Sahlsten 2004
From LP/CD Ildjarn - Ildjarn-Nidhogg (Northern Heritage 2003)
Style: Feral Black Metal
Band's site: www.ildjarndomain.com
Any comments/changes/suggestions to tuomas_sahlsten@hotmail.com
Standard E tuning. This also sounds good at D tuning.
Use echoing riffing.

Small update 13.7.2004

RIFF 1
---------------------------------------|
---------------------------------------|
---------------------------------------|
-----7-------6-------6-------6---------|
---7---7---7---7---7---7---7---7-------|
-7-------7-------7-------7-------------|

RIFF 2
|--------------------------------------|
|--------------------------------------|
|--------------------------------------|
|-777777777777666666666666-------------|
|--------------------------------------|
|--------------------------------------|

RIFF 3
|--------------------------------------|
|--------------------------------------|
|--------------------------------------|
|-777777777777--666666666666-----------|
|--------------------------------------|
|-------------77-----------------------|

RIFF 4
|--------------------------------------|
|--------------------------------------|
|--------------------------------------|
|--------------------------------------|
|-777777-------------------------------|
|--------777777------------------------|

RIFF 5
|--------------------------------------|
|--------------------------------------|
|--------------------------------------|
|-----7-------6-------8---7-6-7-8------|
|---7---7---7---7---7---7--------------|
|-7-------7-------7--------------------|

RIFF 6
|--------------------------------------|
|--------------------------------------|
|--------------------------------------|
|-877-877-666666666666-----------------|
|--------------------------------------|
|--------------------------------------|

RIFF 7
|--------------------------------------|
|--------------------------------------|
|--------------------------------------|
|-7-6-7-6-7-6--------------------------|
|--------------------------------------|
|--------------------------------------|

Play in order:
RIFF 1 x 4
RIFF 2 x 1
RIFF 3 x 2
RIFF 4 x 1
RIFF 1 x 4
RIFF 2 x 4
RIFF 1 x 1
RIFF 5 x 1
RIFF 6 x 2
RIFF 2 x 1
RIFF 3 x 2
RIFF 4 x 1
RIFF 7 x 1
RIFF 1 x 4
RIFF 7 x 1
RIFF 1 x 4
RIFF 7 x 1
RIFF 1 x 4

  Visit MetalTabs.com for more metal tablature

bottom separator

Contact Us | Privacy Policy | Disclaimer | Legal Notice
Copyright © 2001-2014 MetalTabs.com. All Rights Reserved.