top separator

Home

Forum

What's New

Submit a Tab

FAQ

Links

Contact Us

Link to Us

MuSpy.com

MetalTabs.com logo

Bands

0-9

A

B

C

D

E

F

G

H

I

J

K

L

M

N

O

P

Q

R

S

T

U

V

W

X

Y

Z

Search

What

Where
 

Asphyx - "Initation Into The Ossuary" Guitar Tab

Plain Text Version
More Asphyx Tabs

Hits: 2551
Updated: 2004-03-03 14:14:56

 

By:

BestialWarrior

sendpm.gif

email.gif

Important note
This tab is available online because we obtained explicit permission from Asphyx or their label.


#----------------------------------PLEASE NOTE---------------------------------#
#This file is the author's own work and represents their interpretation of the #
#song. You may only use this file for private study, scholarship, or research. #
#Unless specified otherwise, this is NOT an official tab from the band members.#
#------------------------------------------------------------------------------#

  Visit MetalTabs.com for more metal tablature
  
Band:  (ASPHYX)
Album: (ASPHYX)
Song:  (INITIATION INTO THE OSSUARY)

Copyright (c)  (Century Media) (1994)
Version 1.0 - (Jan/Feb 94)

Transcribed By: (BestialWarrior)
Email:           Bestialson2003@yahoo.com


.  - palm mute           /  - slide up to
\  - slide down to       ~  - vibrato
h  - hammer on           b  - Bend
p  - pull off            Suffixes for bend
t  - tap                 f  - full bend    h - half bend
ph - pinched harmonic    q  - quarter bend t - tap bend
*  - see comment         ^  - Hold bend    r release bend
x  - Stuccatto           ~  - vibrato bend
,  - slight palm mute    () - ghost note, sustained note
"  - tremolo note        <> - Trill
S  - Sustained Note.

Tunning: Tune Low to High:
6=D 5=G 4=C 3=F 2=A 1=D

Intro.
Riff#1. Slow..with Volume Rising..
|-------------------||
|-------------------||
|-------------------||
|-------------------||
|4-4--------4-2---2-||
|2-2--------2-0---0-||
   S
Riff#2. Slow.
|-------------------------------------------------------------------|
|-------------------------------------------------------------------|
|-------------------------------------------------------------------|
|-------------------------------------------------------------------|
|2-------------------0--1-------2-------2-3-2-1-2-------------------|
|0--------2--3------------------0--1------------0--------2--3-------|
 S           S          S          S            S           S

Riff#2. Continued..
|------------------------------||
|------------------------------||
|------------------------------||
|------------------------------||
|2-1---------------------------||
|----------4-3--------3-4--3-1-||
   S         S

Riff#3. Slow/Other guitar/bass and drums kick in...
fast tremolo picking where indicated...
|-------------|--------------------------------------------|
|-------------|--------------------------------------------|
|-------------|--------------------------------------------|
|-------------|------2--3----------------------------------|
|2--------4--5|------0--1------2--3----22223333332222221111|
|0--------2--3|----------------0--1------------------------|
 S           S          S              """"""""""""""""""""
Riff#3, cont.. Fill.
|---------------------------------------------||
|---------------------------------------------||
|---------------------------------------------||
|------4--3------6--5-------------------------||
|------2--1------4--3-------------------------||
|----------------4--3----33334444443333331111-||
          S              """"""""""""""""""""

Riff#4. Slow/Heavy. Fast tremolo picking where needed..
|--------------------------|------------------------------------------|
|--------------------------|------------------------------------------|
|--------------------------|------------------------------------------|
|--------------------------|-2--3-------------------------------------|
|2-----------4--5----------|-0--1-1-1-1-1-1--2--3-----2222333333222222|
|0-0-0-0-0-0-2--3-3-3-3-3-3|-----------------0--1-1-1-----------------|
   . . . . .      . . . . .       . . . . .       . . """"""""""""""""

Riff#4. conti..   Fill.
|----|---------------------------------------------||
|----|---------------------------------------------||
|----|---------------------------------------------||
|----|4--3-----------6--5--------------------------||
|1111|2--1-1-1-1-1-1-4--3--------------------------||
|----|---------------4--3--3-3-33334444443333331111||
 """"      . . . . .       . . """"""""""""""""""""

Riff#5. Slightly fast..
|------------------------------------------------------||
|------------------------------------------------------||
|------------------------------------------------------||
|----------------------------4------------3------------||
|2--------------2------------2------------1---------3--||
|0--0-0-0-0-0-0-0--2-2-2-2-3----2-2-2-2-3---1-1-1-1-1--||
    . . . . . .    . . . .      . . . .     . . . .

Riff#6. Fast/grindish like..Tremolo pick on the high notes..
|-----------------------------------------------------||
|-----------------------------------------------------||
|-----------------------------------------------------||
|-----------------------------------------------------||
|----------------------22222222--------33333333-------||
|0000003333222222222222--------33333333--------111333-||
                       """"""""        """"""""
Transtion A.
|----------||
|----------||
|----------||
|----------||
|2-------2-||
|0-------0-||
 S       .

Riff#7. Fast..
|--------------------------||
|--------------------------||
|--------------------------||
|-----------------------T--||
|2------4-3--2-2-------(4)-||
|0-0000-2-1--0-0-0000-1-2--||
   ....          ....

Riff#8. Fast..
|---------------------------------------------------------------||
|---------------------------------------------------------------||
|---------------------------------------------------------------||
|---------4-------------------------------3---------------------||
|---------2--------5-6-5-4-5-4-3----------1--------5-6-5-4-5-4-3||
|00000000---000000-3-4-3-2-3-2-1-00000000---000000-3-4-3-2-3-2-1||
 ........   ......               ........   ......
Repeat#7,8,

Transition B. Medium pace/heavy..,Drums with toms playing...
|------------------------------------------------------------------||
|------------------------------------------------------------------||
|------------------------------------------------------------------||
|------------------------------------------------------------------||
|2-----------------------------------------------------------------||
|0-0-0-0-0-0-0-0-0-0-0-0-0-0-0-0-0-0-0-0-0-0-0-0-0-0-0-0-0-0-0-0-0-||
   . . . . . . . . . . . . . . . . . . . . . . . . . . . . . . . .

Riff#9. Slow/Heavy..                 Fill.
|------------|-----------------|------------------||
|------------|-----------------|------------------||
|------------|-----------------|------------------||
|-------5----|-----------------|------------------||
|2------3----|-----------------|--4-3---3-4-3-----||
|0----0------|0-3-2-0-2-3-2-3-2|0-2-1-0-1-2-1-3-2-||
      .       . . . . . . . . . .     .       . .

Repeat Riff#6,

Transition C.
|-------||
|-------||
|-------||
|-------||
|2-2-2-2||
|0-0-0-0||
 . . . .

Riff#10. Medim pace..heavy..       Fill.
|------------------------|-------|------||
|------------------------|-------|------||
|------------------------|-------|------||
|------------3-4-3-2-----|-------|------||
|2-----2-----------------|6/7-7--|5/6-3-||
|0-0-0---0-0---------0-0-|4/5-5--|3/4-1-||
   . .   . .         . .

Riff#11. Fast.. Slight P.M.          Fill.
|------------------------|--------|--------||
|------------------------|--------|--------||
|------------------------|--------|--------||
|------------------------|--------|--------||
|--------7777------------|--------|--------||
|00005555----555577775555|11113333|11112222||
 ........................ ........ ........

Repeat Riffs#10,11,10,11, 6,Transition A, 7, 8, and 5.

END

Note: Longest Asphyx tune to my knowledge.  But in the end,
it's still a good, doomy, fast tune.  Email me for
Questions, info, etc...:[

  Visit MetalTabs.com for more metal tablature

bottom separator

Contact Us | Privacy Policy | Disclaimer | Legal Notice
Copyright © 2001-2014 MetalTabs.com. All Rights Reserved.