top separator

Home

Forum

What's New

Submit a Tab

FAQ

Links

Contact Us

Link to Us

MuSpy.com

MetalTabs.com logo

Bands

0-9

A

B

C

D

E

F

G

H

I

J

K

L

M

N

O

P

Q

R

S

T

U

V

W

X

Y

Z

Search

What

Where
 

Asphyx - "Emperors Of Salvation" Guitar Tab

Plain Text Version
More Asphyx Tabs

Hits: 3648
Updated: 2004-03-03 14:14:25

 

By:

BestialWarrior

sendpm.gif

email.gif

Important note
This tab is available online because we obtained explicit permission from Asphyx or their label.


#----------------------------------PLEASE NOTE---------------------------------#
#This file is the author's own work and represents their interpretation of the #
#song. You may only use this file for private study, scholarship, or research. #
#Unless specified otherwise, this is NOT an official tab from the band members.#
#------------------------------------------------------------------------------#

  Visit MetalTabs.com for more metal tablature
  
Band:  (ASPHYX)
Album: (ASPHYX)
Song:  (EMPERORS OF SALVATION)

Copyright (c)  (Century Media) (1994)
Version 1.0 - (Jan/Feb 94)

Transcribed By: (BestialWarrior)
Email:          (Bestialson2003@yahoo.com)


.  - palm mute           /  - slide up to
\  - slide down to       ~  - vibrato
h  - hammer on           b  - Bend
p  - pull off            Suffixes for bend
t  - tap                 f  - full bend    h - half bend
ph - pinched harmonic    q  - quarter bend t - tap bend
*  - see comment         ^  - Hold bend    r release bend
x  - Stuccatto           ~  - vibrato bend
,  - slight palm mute    () - ghost note, sustained note
"  - tremolo note        <> - Trill
L.H.P.M.-Left Hand Palm Mute.

Note: As some of you guitarist know, A left hand palm mute isn't played
too often.  This just happens to be one of those rare tunes with it
in there.  Course, when you use this, it makes a slight harmonic pitch.
Which would state that it's a stuccatto,etc..
Still, if it doesn't sound right to you, email me to make a suggestion
,etc..
Tunning: Tune Low to High:
6=D 5=G 4=C 3=F 2=A 1=D

Riff#1.
|--------------------------------------------|-----------------------|
|--------------------------------------------|-----------------------|
|--------------------------------------------|-----------------------|
|-----------------xxxxxxxx-------------------|-----------------------|
|2-3-2--3-2--3-2--22222222--2-3-2--3-2--3-2--|-----------------------|
|0-1-0--1-0--1-0--22222222--0-1-0--1-0--1-0--|(Drum Fill)------------|
                  ........
                 (L.H.P.M.)
Riff#1. Continued...
|-----------------------------------------------------||
|-----------------------------------------------------||
|-----------------------------------------------------||
|-----------------xxxxxxxx-------------------xxxxxxxx-||
|2-3-2--3-2--3-2--22222222--2-3-2--3-2--3-2--22222222-||
|0-1-0--1-0--1-0--22222222--0-1-0--1-0--1-0--22222222-||
                  ........                   ........
                 (L.H.P.M.)                 (L.H.P.M.)
Transition A.
|---------------||
|---------------||
|---------------||
|---------5-----||
|2--------3-5-3-||
|0----0-1---3-1-||
      . . . . .
Riff#2. Open D notes are played fast.
|--------------------------------------||
|--------------------------------------||
|--------------------------------------||
|-------------------------------5------||
|2-----------3-------2----------3-5-3--||
|0-0-0-0-0-1---3-1-0-0-0-0-0-0----3-1--||
   . . . .             . . . .

Riff#3. Fast.
|---------------------------------------------------------------------||
|---------------------------------------------------------------------||
|---------------------------------------------------------------------||
|---------------------------------------------------------------------||
|-----------------------------3-4-3------------------------------3-4-3||
|4444444455566655555577776666-1-2-1-4444444455566655555588887777-1-2-1||
 ............................       ............................
Transition B.
|------||
|------||
|------||     Repeat Riffs#2,3.
|5-----||
|3-5-3-||
|--3-1-||

Riff#4.Fast/choppy/up and down stroke picking.
|----------------|---------------|--------------||
|----------------|---------------|--------------||
|----------------|---------------|--------------||
|----------------|---------------|----(Fill)----||
|----------------|---------------|--------------||
|0000000000000000|222333222333222|22233322244444||
 ................ ............... ..............

Riff#5. Slow..*Open D chords are played aprox.6 sec.
|--------------------------------||
|--------------------------------||
|--------------------------------||
|--------------------------------||
|2--------4-3----2-2--------2-5--||
|0--------2-1----0-0--------0-3--||
 *                 *
Riff#6. Slow..
|---------------------|----------|-------||
|---------------------|----------|-------||
|---------------------|----------|-------||
|---------------------|----------|-------||
|2------2------2------|4-3----2--|2-5----||
|0----0-0----0-0----0-|2-1----0--|0-3----||
      .      .      .

Riff#7. Fast..*Played only on the fourth time.        Fill.(4th time)*
 (Play this section 3 times)
|---------------------------------------------|-------|------||
|---------------------------------------------|-------|------||
|---------------------------------------------|-------|------||
|---------------------------------------------|-------|------||
|---------------------------------------------|-------|555555||
|(33333333333366666644466644433333333333666666|888555)|------||
  ............................................ ......  ......

Repeat Riff#1, transition A, 2, 3,

End Riff.
|-----||
|-----||
|-----||
|-----||
|2--2-||
|0--0-||

End.

  Visit MetalTabs.com for more metal tablature

bottom separator

Contact Us | Privacy Policy | Disclaimer | Legal Notice
Copyright © 2001-2014 MetalTabs.com. All Rights Reserved.