top separator

Home

Forum

What's New

Submit a Tab

FAQ

Links

Contact Us

Link to Us

MuSpy.com

MetalTabs.com logo

Bands

0-9

A

B

C

D

E

F

G

H

I

J

K

L

M

N

O

P

Q

R

S

T

U

V

W

X

Y

Z

Search

What

Where
 

Asphyx - "Depths Of Eternity" Guitar Tab

Plain Text Version
More Asphyx Tabs

Hits: 2880
Updated: 2004-03-03 14:13:09

 

By:

BestialWarrior

sendpm.gif

email.gif

Important note
This tab is available online because we obtained explicit permission from Asphyx or their label.


#----------------------------------PLEASE NOTE---------------------------------#
#This file is the author's own work and represents their interpretation of the #
#song. You may only use this file for private study, scholarship, or research. #
#Unless specified otherwise, this is NOT an official tab from the band members.#
#------------------------------------------------------------------------------#

  Visit MetalTabs.com for more metal tablature
  
Band:  (Asphyx)
Album: (Asphyx)
Song:  (Depths Of Eternity)

Copyright (c)  (Century Media) (1994)
Version 1.0 - (Jan/Feb 94)

Transcribed By: (BestialWarrior)
Email:          (Bestialson2003@yahoo.com)


.  - palm mute           /  - slide up to
\  - slide down to       ~  - vibrato
h  - hammer on           b  - Bend
p  - pull off            Suffixes for bend
t  - tap                 f  - full bend    h - half bend
ph - pinched harmonic    q  - quarter bend t - tap bend
*  - see comment         ^  - Hold bend    r release bend
x  - Stuccatto           ~  - vibrato bend
,  - slight palm mute    () - ghost note, sustained note
"  - tremolo note        <> - Trill
G  - Gallop.

Tunning: Tune down One whole step= D.

Riff#1.  Slighty Fast.
|----------------------------------------||
|----------------------------------------||
|----------------------------------------||
|----------------------------------------||
|2---------7-8---------8-7---5-7-8-7-5-3-||
|0-0-0-0-0-5-6-0-0-0-0-6-5-0-3-5-6-5-3-1-||
   . . . .     . . . .     .

Riff#2.
|----------------------------||
|----------------------------||
|----------------------------||
|----------------------------||
|----------------------------||
|0-0-000-000-0-0-000-000-000-||
 . . ... ... . . ... ... ...
      G   G       G   G   G

Riff#3. Slow..
|---------------------------------------------------------|
|---------------------------------------------------------|
|---------------------------------------------------------|
|------------------8--------------------------------------|
|2--------4--------6--------7------3--5--2--------4-------|
|0--------2--------6--------5------1--3--0--------2-------|

Riff#3. continued..
|---------------------||
|---------------------||
|---------------------||
|7--------------------||
|5--------7------3--5-||
|5--------5------1--3-||

Riff#4. Slow..        Fill.
|---------------|----|--||
|---------------|----|--||
|---------------|----|--||
|---------------|----|3-||
|2----3/4-4-3---|-2~-|1-||
|0--0-1/2-2-1---|----|--||
    .

Riff#5. Slighty Fast..
|-------------------------------------------||
|-------------------------------------------||
|-------------------------------------------||
|-------------------------------------------||
|------------222---555----------------------||
|222222222222---333---555555555555333555333-||

Repeat Riff#1.

Riff#6. Slow.
|--------------------------------------------------------||
|--------------------------------------------------------||
|--------------------------------------------------------||
|--------------------------------------------------------||
|2------3--3-2----2----------2------3--3-2----2-------3~-||
|0------1--1-0--3---3-5-3-2--0------1--1-0--3---3-5-3----||

Riff#7. Palm muted notes played slighty fast..
|-----------------------------------------------------------||
|-----------------------------------------------------------||
|-----------------------------------------------------------||
|-----------------------------------------------------------||
|2----2-3/4-4\3-2----2-3/4-4\3-2----2-3/4-4\3-2-1------1111-||
|0----0-1/2-2\1-0----0-1/2-2\1-0----0-1/2-2\1-0---0000------||
                                                  .... ....
Repeat Riffs#5,1.

Riff#8.
|--------------------------------------------------||
|--------------------------------------------------||
|--------------------------------------------------||
|--------------------------------------------------||
|2-------------------------2-3-4-2-3-4-2-3-4-2-3-4-||
|0-0-0-0-0-0-0-0-0-0-0-0-0-0-1-2-0-1-2-0-1-2-0-1-2-||
   . . . . . . . . . . . .

Repeat Riffs#1,6,3.

End..
Any questions, comments, email me..:[

  Visit MetalTabs.com for more metal tablature

bottom separator

Contact Us | Privacy Policy | Disclaimer | Legal Notice
Copyright © 2001-2014 MetalTabs.com. All Rights Reserved.