top separator

Home

Forum

What's New

Submit a Tab

FAQ

Links

Contact Us

Link to Us

MetalTabs.com logo

Bands

0-9

A

B

C

D

E

F

G

H

I

J

K

L

M

N

O

P

Q

R

S

T

U

V

W

X

Y

Z

Search

What

Where
 

Asphyx - "Abomination Echoes" Guitar Tab

Plain Text Version
More Asphyx Tabs

Hits: 3014
Updated: 2004-03-03 14:12:24

 

By:

BestialWarrior

sendpm.gif

email.gif

Important note
This tab is available online because we obtained explicit permission from Asphyx or their label.


#----------------------------------PLEASE NOTE---------------------------------#
#This file is the author's own work and represents their interpretation of the #
#song. You may only use this file for private study, scholarship, or research. #
#Unless specified otherwise, this is NOT an official tab from the band members.#
#------------------------------------------------------------------------------#

  Visit MetalTabs.com for more metal tablature
  
Band:  (ASPHYX)
Album: (ASPHYX)
Song:  (ABOMINATION ECHOES)

Copyright (c)  (Century Media) (1994)
Version 1.0 - (Jan/Feb 94)

Transcribed By: (BestialWarrior)
Email:          (Bestialson2003@yahoo.com)


.  - palm mute           /  - slide up to
\  - slide down to       ~  - vibrato
h  - hammer on           b  - Bend
p  - pull off            Suffixes for bend
t  - tap                 f  - full bend    h - half bend
ph - pinched harmonic    q  - quarter bend t - tap bend
*  - see comment         ^  - Hold bend    r release bend
x  - Stuccatto           ~  - vibrato bend
,  - slight palm mute    () - ghost note, sustained note
"  - tremolo note        <> - Trill
G  - Gallop.

Tunning :Tune low to high:
6=D 5=G 4=C 3=F 2=A 1=D

Riff#1. Slighty Fast. Up and down stroke picking..
|--------------------------------------------------------------||
|--------------------------------------------------------------||
|--------------------------------------------------------------||
|--------------------------------------------------------------||
|------------2-------------2-------------2---------------------||
|0-0-0-0-0-0-0-0-0-0-0-0-0-0-0-0-0-0-0-0-0-0-0-5-5-3-3-1-1-1-1-||
 . . . . . .   . . . . . .   . . . . . .   . . . . . . . . . .

Riff#2.
|-------------------------------------||
|-------------------------------------||
|-------------------------------------||
|-----------------------------5-6-8-7-||
|2----------------------------3-4-6-5-||
|0--000--000--000--000--000-0-3-4-6-5-||
    ...  ...  ...  ...  ...
     G    G    G    G    G
Riff#3.
|-----------------------------------------------||
|-----------------------------------------------||
|-----------------------------------------------||
|-----------------------------------------------||
|2--2--2--2--2--2--2--2--2--2--2--2--2--2--2--2-||
|0--0--0--0--0--0--0--0--0--0--0--0--0--0--0--0-||

Riff#4.  All galloping..All palm muted..
|----------------------------------------------------------------||
|----------------------------------------------------------------||
|----------------------------------------------------------------||
|----------------------------------------------------------------||
|----------------------------------------------------------------||
|000-000-000-000-000-000-000-000-000-000-000-000-000-000-000-000-||
  G   G   G   G   G   G   G   G   G   G   G   G   G   G   G   G

Riff#5. Very Fast..(Faster than looks..)!
|-----------------------------------------------------------||
|-----------------------------------------------------------||
|-----------------------------------------------------------||
|10------9------7------9------7------9------10------9-------||
|8-------7------5------7------5------7------8-------7-------||
|--000000-000000-000000-000000-000000-000000--000000-000000-||
   ...... ...... ...... ...... ...... ......  ...... ......

Repeat Riffs#1,2.

Riff#6.Slight P.M. where indicated..Up and down stroke picking..
|--------------------------------------------------------------------------|
|--------------------------------------------------------------------------|
|--------------------------------------------------------------------------|
|--------------------------------------------------------------------------|
|------222222222222--------------------------------------------------------|
|000000------------33335555333300000000000000002222333322223333333333333333|
 ......,,,,,,,,,,,,........................................................

Riff#6. Continued.
|-------------------------------||
|-------------------------------||
|-------------------------------||
|-------------------------------||
|-------------------------------||
|222233332222000000000000000000-||
 ..............................

Repeat Riff#2.
END Chord.
|--||
|--||
|--||
|--||
|2-||
|0-||

End..


All in All, a good tune to jam to.
This one took maybe just around 45 minutes to get down.
Any questions, comments, just email me.

  Visit MetalTabs.com for more metal tablature

bottom separator

Contact Us | Privacy Policy | Disclaimer | Legal Notice
Copyright © 2001-2014 MetalTabs.com. All Rights Reserved.