top separator

Home

Forum

What's New

Submit a Tab

FAQ

Links

Contact Us

Link to Us

MuSpy.com

MetalTabs.com logo

Bands

0-9

A

B

C

D

E

F

G

H

I

J

K

L

M

N

O

P

Q

R

S

T

U

V

W

X

Y

Z

Search

What

Where
 

Asphyx - "'Til Death Do Us Apart" Guitar Tab

Plain Text Version
More Asphyx Tabs

Hits: 2679
Updated: 2004-03-03 14:11:37

 

By:

BestialWarrior

sendpm.gif

email.gif

Important note
This tab is available online because we obtained explicit permission from Asphyx or their label.


#----------------------------------PLEASE NOTE---------------------------------#
#This file is the author's own work and represents their interpretation of the #
#song. You may only use this file for private study, scholarship, or research. #
#Unless specified otherwise, this is NOT an official tab from the band members.#
#------------------------------------------------------------------------------#

  Visit MetalTabs.com for more metal tablature
  
Band:  (ASPHYX)
Album: (ASPHYX)
Song:  ('Til Death Do Us APart)

Copyright (c)  (Century Media) (1994)
Version 1.0 - (Jan/Feb 94)

Transcribed By: (BestialWarrior)
Email:          (Bestialson2003@yahoo.com)


.  - palm mute           /  - slide up to
\  - slide down to       ~  - vibrato
h  - hammer on           b  - Bend
p  - pull off            Suffixes for bend
t  - tap                 f  - full bend    h - half bend
ph - pinched harmonic    q  - quarter bend t - tap bend
*  - see comment         ^  - Hold bend    r release bend
x  - Stuccatto           ~  - vibrato bend
,  - slight palm mute    () - ghost note, sustained note
"  - tremolo note        <> - Trill
G  - Gallop.              S - Sustained Note.

Tunning :Tune One Whole Step Down:
6=D  5=G  4=C 3=F 2=A 1=D.

Riff#1. Fast.                              Fill.
|------------------------------------|----|----||
|------------------------------------|----|----||
|------------------------------------|----|----||
|------------------------------------|----|----||
|------------333322222222----11111111|----|----||
|000000001111------------2222--------|3333|1111||

Riff#2.
|----------------------------------------------------------||
|----------------------------------------------------------||
|----------------------------------------------------------||
|----------------------------------------------------------||
|2-------------3/4-----4/6-3--2-------------3/4------------||
|0-000-000-000-1/2-000-2/4-1--0-000-000-000-1/2-000-1/2-5~-||
   ... ... ...     ...          ... ... ...     ...     ph
    G   G   G       G            G   G   G       G

Riff3.Slow.
|----------------------------------------------||
|----------------------------------------------||
|----------------------------------------------||
|-----------3-----------------------3------8-7-||
|2------5-3-1------5--3--2------5-3-1------6-5-||
|0------3-1-1------3--1--0------3-1------------||
 S          S            S          S

Riff#4.Slow.                     Fill.
|-----------------------|-------|--------||
|-----------------------|-------|--------||
|-----------------------|-------|--------||
|-----------------------|5--8-7-|5-6-8-7-||
|2--------2-1/2-1-------|3--6-5-|3-4-6-5-||
|0------1---------3~--0-|3--6-5-|3-4-6-5-||
 S

Riff#5. Fast. up and down stroke picking./Choppy.
|-------------------------------------------------------------------||
|-------------------------------------------------------------------||
|-------------------------------------------------------------------||
|----------------------------------------------------------------3--||
|2-----------------3/4-----------------4/5-----------------5/6-5-1-4||
|0-0-0-0-0-0-0-0-0-1/2-0-0-0-0-0-0-0-0-2/3-0-0-0-0-0-0-0-0-3/4-3---2||
   . . . . . . . .     . . . . . . . .     . . . . . . . .

Riff#6. Fast/Grind..                          Fill.
|------------------------------|------------|------------||
|------------------------------|------------|------------||
|------------------------------|------------|------------||
|------------------------------|------------|------------||
|------------------111111111111|------------|666666555555||
|000000000000333111------------|333333111111|------------||

Riff#7. Slighty Fast.
|------------------------------------------------||
|------------------------------------------------||
|------------------------------------------------||
|------------------------------------------------||
|2-------7-------6-5-3-5-2-------7-------6-5-3-3-||
|0-0-0-0-5-0-0-0-4-3-1-3-0-0-0-0-5-0-0-0-4-3-1-1-||
   . . .   . . .           . . .   . . .

Repeat Riff#6/solo.
Repeat Riffs#3,5.

End Chord.
|-||
|-||
|-||
|-||
|2||
|0||

END

  Visit MetalTabs.com for more metal tablature

bottom separator

Contact Us | Privacy Policy | Disclaimer | Legal Notice
Copyright © 2001-2014 MetalTabs.com. All Rights Reserved.