top separator

Home

Forum

What's New

Submit a Tab

FAQ

Links

Contact Us

Link to Us

MuSpy.com

MetalTabs.com logo

Bands

0-9

A

B

C

D

E

F

G

H

I

J

K

L

M

N

O

P

Q

R

S

T

U

V

W

X

Y

Z

Search

What

Where
 

Ancient Wisdom - "Spiritual forces of evil in the heavenly realms" Guitar Tab

Plain Text Version
More Ancient Wisdom Tabs

Hits: 4403
Rated: 4.67 out of 5 (3 votes)
Updated: 2004-03-03 04:38:06

 

By:

Darkenelf

sendpm.gif

email.gif

Important note
This tab is available online because we obtained explicit permission from Ancient Wisdom or their label.


#----------------------------------PLEASE NOTE---------------------------------#
#This file is the author's own work and represents their interpretation of the #
#song. You may only use this file for private study, scholarship, or research. #
#Unless specified otherwise, this is NOT an official tab from the band members.#
#------------------------------------------------------------------------------#

  Visit MetalTabs.com for more metal tablature
  
Band: Ancient Wisdom
Album: The Calling
Song: Spiritual Forces of Evil in the heavenly Realms
Tabbed by: Martijn Wietsma (Darkenelf)
Tab Date: 12-04-2003
Email: northerland@yahoo.co.uk

Standard E Tuning

riff A:
|-------------------------------------------------------------------|
|-------------------------------------------------------------------|
|-------------------------------------------------------------------|
|-------------------------------------------------------------------|
|-0--6-----7-6------0--6-----7-6------------------------------------|
|-------4-----------------4-----------------------------------------|

riff B:
|-------------------------------------------------------------------|
|-------------------------------------------------------------------|
|-------------------------------------------------------------------|
|-----------------3-2h3p2h3p2---------------------------------------|
|-7--8\5-3-3/5-2-----------------7--8\5-3-3/5-2--3-2h3p2------------|
|-------------------------------------------------------------------|

|-------------------------------------------------------------------|
|-------------------------------------------------------------------|
|-------------------------------------------------------------------|
|-----------------3-2h3p2h3p2---------------------------------------|
|-7--8\5-3-3/5-2-----------------7--8\5-3-3/5-2---------------------|
|-------------------------------------------------------------------|

riff C:
|-------------------------------------------------------------------|
|----------8~-------------4~--6~-------------------------8~---------|
|-------------------------------------------------------------------|
|-9-9-9-9--------5-5-5-5--------------------------------------------|
|-7-7-7-7--------3-3-3-3--------------------------------------------|
|-------------------------------------------------------------------|
(8x)
riff D:
|-------------------------------------------------------------------|
|-------------------------------------------------------------------|
|-------------------------------------------------------------------|
|-9--9--9-9-9---9--9--9-9-9-----------------------------------------|
|-7--7--7-7-7---7--7--7-7-7-----------------------------------------|
|-------------------------------------------------------------------|
(2x)

|-------------------------------------------------------------------|
|-------------------------------------------------------------------|
|-------------------------------------------------------------------|
|-12--12--12-12-12---12--12--12-12-12-------------------------------|
|-10--10--10-10-10---10--10--10-10-10-------------------------------|
|-------------------------------------------------------------------|
(2x)

|-------------------------------------------------------------------|
|-------------------------------------------------------------------|
|-------------------------------------------------------------------|
|-9--9--9-9-9---9--9--9-9-9-----------------------------------------|
|-7--7--7-7-7---7--7--7-7-7-----------------------------------------|
|-------------------------------------------------------------------|
(2x)


|-------------------------------------------------------------------|
|-------------------------------------------------------------------|
|-------------------------------------------------------------------|
|-5--5--5-5-5---5--5--5-5-5-----------------------------------------|
|-3--3--3-3-3---3--3--3-3-3-----------------------------------------|
|-------------------------------------------------------------------|
(2x)
riff D:
|-------------------------------------------------------------------|
|-------------------------------------------------------------------|
|-------------------------------------------------------------------|
|-9--9--9-9-9---9--9--9-9-9-----------------------------------------|
|-7--7--7-7-7---7--7--7-7-7-----------------------------------------|
|-------------------------------------------------------------------|
(2x)

|-------------------------------------------------------------------|
|-------------------------------------------------------------------|
|-------------------------------------------------------------------|
|-12--12--12-12-12---12--12--12-12-12-------------------------------|
|-10--10--10-10-10---10--10--10-10-10-------------------------------|
|-------------------------------------------------------------------|
(2x)

|-------------------------------------------------------------------|
|-------------------------------------------------------------------|
|-------------------------------------------------------------------|
|-9--9--9-9-9---9--9--9-9-9-----------------------------------------|
|-7--7--7-7-7---7--7--7-7-7-----------------------------------------|
|-------------------------------------------------------------------|
(2x)

|-------------------------------------------------------------------|
|-------------------------------------------------------------------|
|-------------------------------------------------------------------|
|-5--5--5-5-5---5--5--5-5-5----7------------------------------------|
|-3--3--3-3-3---3--3--3-3-3----5------------------------------------|
|-------------------------------------------------------------------|
(2x)
riff C:
|-------------------------------------------------------------------|
|----------8~-------------4~--6~------------------------------------|
|-------------------------------------------------------------------|
|-9-9-9-9--------5-5-5-5--------------------------------------------|
|-7-7-7-7--------3-3-3-3--------------------------------------------|
|-------------------------------------------------------------------|
(7x)

|-------------------------------------------------------------------|
|----------8~-------------4~--3--1----------------------------------|
|-------------------------------------------------------------------|
|-9-9-9-9--------5-5-5-5------------------2-2-2---------------------|
|-7-7-7-7--------3-3-3-3------------------2-2-2---------------------|
|-----------------------------------------0-0-0---------------------|
          x x x(1x)
Keyboard part

riff E:
|-------------------------------------------------------------------|
|-------------------------------------------------------------------|
|-------------------------------------------------------------------|
|------------------------------2---2/3/5/7-5-3----------------------|
|-5-/7-7--2---2-3-5--3-2----2-------------------5/7--2--------------|
|-------------------------5-----------------------------------------|
(1x)
riff F:
|-------------------------------------------------------------------|
|-------------------------------------------------------------------|
|-------------------------------------------------------------------|
|-----------------2---2/3/5/7-5-3-----------------------------------|
|-2-3-5--3-2---2-------------------5/7--2---------------------------|
|------------5------------------------------------------------------|
(15x)
riff C:
|-------------------------------------------------------------------|
|----------8~-------------4~--6~------------------------------------|
|-------------------------------------------------------------------|
|-9-9-9-9--------5-5-5-5--------------------------------------------|
|-7-7-7-7--------3-3-3-3--------------------------------------------|
|-------------------------------------------------------------------|
(8x)
riff G:
|-------------------------------------------------------------------|
|-------------------------------------------------------------------|
|-------------------------------------------------------------------|
|-5-----------5-------------5-----------5---------------------------|
|---7--7-7--7---7-3-----------7--7-7--7---7-3-----------------------|
|-------------------------------------------------------------------|
(2x)
riff E:
|-------------------------------------------------------------------|
|-------------------------------------------------------------------|
|-------------------------------------------------------------------|
|------------------------------2---2/3/5/7-5-3----------------------|
|-5-/7-7--2---2-3-5--3-2----2-------------------5/7--2--------------|
|-------------------------5-----------------------------------------|
(1x)
riff F:
|-------------------------------------------------------------------|
|-------------------------------------------------------------------|
|-------------------------------------------------------------------|
|-----------------2---2/3/5/7-5-3-----------------------------------|
|-2-3-5--3-2---2-------------------5/7--2---------------------------|
|------------5------------------------------------------------------|
(15x)

  Visit MetalTabs.com for more metal tablature

bottom separator

Contact Us | Privacy Policy | Disclaimer | Legal Notice
Copyright © 2001-2014 MetalTabs.com. All Rights Reserved.