top separator

Home

Forum

What's New

Submit a Tab

FAQ

Links

Contact Us

Link to Us

MetalTabs.com logo

Bands

0-9

A

B

C

D

E

F

G

H

I

J

K

L

M

N

O

P

Q

R

S

T

U

V

W

X

Y

Z

Search

What

Where
 

Ancient Wisdom - "Through the mist of dust they arose and clad the sky with fire" Guitar Tab

Plain Text Version
More Ancient Wisdom Tabs

Hits: 4011
Rated: 5.00 out of 5 (5 votes)
Updated: 2004-03-03 04:37:52

 

By:

Darkenelf

sendpm.gif

email.gif

Important note
This tab is available online because we obtained explicit permission from Ancient Wisdom or their label.


#----------------------------------PLEASE NOTE---------------------------------#
#This file is the author's own work and represents their interpretation of the #
#song. You may only use this file for private study, scholarship, or research. #
#Unless specified otherwise, this is NOT an official tab from the band members.#
#------------------------------------------------------------------------------#

  Visit MetalTabs.com for more metal tablature
  
Band: Ancient Wisdom
Album: The Calling
Song: Through the Mist of Dust they arose and clad the Sky with Fire
Tabbed by: Martijn Wietsma (Darkenelf)
Tab Date: 12-04-2003
Email: northerland@yahoo.co.uk

Standard E Tuning

Keyboard intro

riff A:
|-------------------------------------------------------------------|
|-------------------------------------------------------------------|
|-------------------------------------------------------------------|
|-9--------------9---------------9-9--------------------------------|
|-7--------------7---------------7-7--------------------------------|
|-------------------------------------------------------------------|

riff B:
|-------------------------------------------------------------------|
|-------------------------------------------------------------------|
|-------------------------------------------------------------------|
|-9--7-7--9-------------7----------------9p7------------------------|
|------------7/9--9-10----10-9--10\7/9-------10p9h10p7h9------------|
|-------------------------------------------------------------------|

|-------------------------------------------------------------------|
|-------------------------------------------------------------------|
|-------------------------------------------------------------------|
|-9--7-7--9-------------7------------------7------------------------|
|------------7/9--9-10----10-9--10\7/9--10--------------------------|
|-------------------------------------------------------------------|
(8x)

Keyboard riff till end of song!

  Visit MetalTabs.com for more metal tablature

bottom separator

Contact Us | Privacy Policy | Disclaimer | Legal Notice
Copyright © 2001-2014 MetalTabs.com. All Rights Reserved.