top separator

Home

Forum

What's New

Submit a Tab

FAQ

Links

Contact Us

Link to Us

MetalTabs.com logo

Bands

0-9

A

B

C

D

E

F

G

H

I

J

K

L

M

N

O

P

Q

R

S

T

U

V

W

X

Y

Z

Search

What

Where
 

Cruachan - "A Druids Passing" Guitar Tab

Plain Text Version
More Cruachan Tabs

Hits: 4112
Rated: 4.33 out of 5 (3 votes)
Updated: 2004-03-01 05:40:36

 

By:

Darkenelf

sendpm.gif

email.gif

Important note
This tab is available online because we obtained explicit permission from Cruachan or their label.


#----------------------------------PLEASE NOTE---------------------------------#
#This file is the author's own work and represents their interpretation of the #
#song. You may only use this file for private study, scholarship, or research. #
#Unless specified otherwise, this is NOT an official tab from the band members.#
#------------------------------------------------------------------------------#

  Visit MetalTabs.com for more metal tablature
  
Band: Cruachan
Album: The Middle Kingdom
Song: A Druids Passing
Tabbed by: Martijn Wietsma
Tab Date: 20-02-2004
Email: northerland@yahoo.co.uk

Standard E Tuning

riff A
|--------------------------------------------------------|
|-5-7-8--5-7--7-5-------5-7-8--5-7--5h7-5----------------|
|-----------------7--------------------------------------|
|--------------------------------------------------------|
|--------------------------------------------------------|
|--------------------------------------------------------|
                                                (4x)
riff B (0:42)
|----5-7----5----5--------------5-7----5-----5-----------|
|-8-------8----8p---8-8p7----8-------8----8p----8~-------|
|--------------------------------------------------------|
|--------------------------------------------------------|
|--------------------------------------------------------|
|--------------------------------------------------------|
                                                (2x)
repeat riff A 4x

riff C (1:20)
|-5-7-8--10-8-7--5-7-----5-7-8--10p8-7~------------------|
|--------------------8-----------------------------------|
|--------------------------------------------------------|
|--------------------------------------------------------|
|--------------------------------------------------------|
|--------------------------------------------------------|
                                                (2x)
repeat riff A 8x
repeat riff B 2x (2:20)
repeat riff C 2x (2:44)
repeat riff A 4x (3:01) (end of song)

  Visit MetalTabs.com for more metal tablature

bottom separator

Contact Us | Privacy Policy | Disclaimer | Legal Notice
Copyright © 2001-2014 MetalTabs.com. All Rights Reserved.