top separator

Home

Forum

What's New

Submit a Tab

FAQ

Links

Contact Us

Link to Us

MuSpy.com

MetalTabs.com logo

Bands

0-9

A

B

C

D

E

F

G

H

I

J

K

L

M

N

O

P

Q

R

S

T

U

V

W

X

Y

Z

Search

What

Where
 

Nydvind - "Heart of the woods" Guitar Tab

Plain Text Version
More Nydvind Tabs

Hits: 3406
Rated: 3.67 out of 5 (3 votes)
Updated: 2004-02-29 15:30:35

 

By:

Darkenelf

sendpm.gif

email.gif

Important note
This tab is available online because we obtained explicit permission from Nydvind or their label.


#----------------------------------PLEASE NOTE---------------------------------#
#This file is the author's own work and represents their interpretation of the #
#song. You may only use this file for private study, scholarship, or research. #
#Unless specified otherwise, this is NOT an official tab from the band members.#
#------------------------------------------------------------------------------#

  Visit MetalTabs.com for more metal tablature
  
Band: Nydvind
Album: Eternal Winter Domain
Song: Heart of the Woods
Tabbed by: Martijn Wietsma
Tab Date: 29-02-2004
Email: northerland@yahoo.co.uk
Version: 0.1: end solo is missing

Standard E Tuning

riff A
|----------------------------------------------------------|
|----------------------------------------------------------|
|----------------------------------------------------------|
|-3-3---------6-5--6-5--6-5-3------------------------------|
|-----6-6--6------------------6----------------------------|
|----------------------------------------------------------|

riff B
|----------------------------------------------------------|
|----------------------------------------------------------|
|----------------------------------------------------------|
|-3-3--------/3--------------------------------------------|
|-----6-6--6----3--3-3--3-4-3^-----------------------------|
|----------------------------------------------------------|

repeat riff A 1x
repeat riff B 1x
repeat riff A 1x
repeat riff B 1x
repeat riff A 1x
repeat riff B 1x

riff C (solo-1) (0:51)
|----------------------------------------------------------|
|-6--6-7-6p4-4h6-\1----------------------------------------|
|--------------------0h------------------------------------|
|----------------------4\3-3--5h6-6--5-5h6p5-6~------------|
|----------------------------------------------------------|
|----------------------------------------------------------|

repeat riff A 1x
repeat riff B 1x
repeat riff A 1x
repeat riff B 1x

riff D (acoustic) (1:41)
|----------------------------------------------------------|
|----------------------------------------------------------|
|----------6-5-5--------------3----------------------------|
|-1/3-3-3--------6---1/3-3-3----6-6-5----------------------|
|----------------------------------------------------------|
|----------------------------------------------------------|
                                                (2x)
riff E (distortion)
|----------------------------------------------------------|
|----------------------------------------------------------|
|----------6-5-5--------------3----------------------------|
|-1/3-3-3--------6---1/3-3-3----6-6-5----------------------|
|----------------------------------------------------------|
|----------------------------------------------------------|
                                                (4x)
repeat riff D 2x
repeat riff E 2x

riff E (3:00)
|----------------------------------------------------------|
|----------------------------------------------------------|
|----------------------------------------------------------|
|----------------------------------------------------------|
|-6----6-----8/9\8--9\8\6--3----3----3----4p3-3p1h---------|
|-4-44-4-44--6/7\6--7\6\4--1-11-1-11-1-11----------4-------|
    ..   ..                  ..   ..   ..        (8x)

riff F (solo-2) missing!!

repeat riff D 2x
repeat riff E 4x
repeat riff D 2x
repeat riff E 2x (till end of song)

  Visit MetalTabs.com for more metal tablature

bottom separator

Contact Us | Privacy Policy | Disclaimer | Legal Notice
Copyright © 2001-2014 MetalTabs.com. All Rights Reserved.