top separator

Home

Forum

What's New

Submit a Tab

FAQ

Links

Contact Us

Link to Us

MetalTabs.com logo

Bands

0-9

A

B

C

D

E

F

G

H

I

J

K

L

M

N

O

P

Q

R

S

T

U

V

W

X

Y

Z

Search

What

Where
 

Nydvind - "Eternal winter domain" Guitar Tab

Plain Text Version
More Nydvind Tabs

Hits: 3333
Rated: 3.00 out of 5 (2 votes)
Updated: 2004-02-29 15:30:25

 

By:

Darkenelf

sendpm.gif

email.gif

Important note
This tab is available online because we obtained explicit permission from Nydvind or their label.


#----------------------------------PLEASE NOTE---------------------------------#
#This file is the author's own work and represents their interpretation of the #
#song. You may only use this file for private study, scholarship, or research. #
#Unless specified otherwise, this is NOT an official tab from the band members.#
#------------------------------------------------------------------------------#

  Visit MetalTabs.com for more metal tablature
  
Band: Nydvind
Album: Eternal Winter Domain
Song: Eternal Winter Domain
Tabbed by: Martijn Wietsma
Tab Date: 28-02-2004
Email: northerland@yahoo.co.uk
Version: 0.1 (some acoustic is missing)

Standard E Tuning

riff A
|---------------------------------------------------------|
|---------------------------------------------------------|
|---------------------------------------------------------|
|-----------------------------------------------------6-6-|
|-3--33--3--33--3--33--3/6-6---3--33--3--33--3--33--3/6-6-|
|-1--11--1--11--1--11--1/4-4---1--11--1--11--1--11--1/6-6-|
                                                (7x)

|---------------------------------------------------------|
|---------------------------------------------------------|
|---------------------------------------------------------|
|---------------------------------------------------------|
|-3--33--3--33--3--33--3/6-6---3--33--3--33--3--33--3/----|
|-1--11--1--11--1--11--1/4-4---1--11--1--11--1--11--1/----|
                                                (1x)
riff B (1:00)
|---------------------------------------------------------|
|---------------------------------------------------------|
|---------------------------------------------------------|
|---------------------------------------------------------|
|-8--888--886--66-6-6\------------------------------------|
|-6--666--664--44-4-4\------------------------------------|

repeat riff A 4x

riff C (1:32)
|---------------------------------------------------------|
|---------------------------------------------------------|
|---------------------------------------------------------|
|---------------------------------------------------------|
|-8--888--886-66------------------------------------------|
|-6--666--664-44------------------------------------------|

riff D
|---------------------------------------------------------|
|---------------------------------------------------------|
|---------------------------------------------------------|
|-6-666-666-666-5-----------------------------------------|
|-4-444-444-444-3--8-888-888-888\6-6-(6)------------------|
|------------------6-666-666-666\4-4-(4)------------------|
                                                (2x)
riff E (1:53)
|---------------------------------------------------------|
|---------------------------------------------------------|
|---------------------------------------------------------|
|-6-666-666-666-8-----------------------------------------|
|-4-444-444-444-6--8-888-888-888\6-6-(6)------------------|
|------------------6-666-666-666\4-4-(4)------------------|

riff F (1:59)
|---------------------------------------------------------|
|---------------------------------------------------------|
|---------------------------------------------------------|
|-6-666-666-666-6--8-888-888-88-88-88---------------------|
|-4-444-444-444-4--6-666-666-66-66-66---------------------|
|---------------------------------------------------------|

repeat riff A 4x
repeat riff C 1x (2:35)
repeat riff D 2x
repeat riff E 1x
repeat riff F 1x

repeat riff A 2x (3:14)

(acoustic part)
riff G (play riff A under riff G)
|---------------------------------------------------------|
|-----------------------------------6~--------------------|
|-----5--------5--------5---------5-----------------------|
|---3---3----3---3----3---3----3--------------------------|
|-3--------3--------3--------3----------------------------|
|---------------------------------------------------------|
                                                (4x)
riff H (3:44) (acoustic)
|---------------------------------------------------------|
|---------------------------------------------------------|
|-----3--------3--------3--------3------------------------|
|---3---3----3---3----3---3----3---3----------------------|
|-6--------6--------6--------6----------------------------|
|---------------------------------------------------------|

|---------------------------------------------------------|
|---------------------------------------------------------|
|-----5--------5--------5--------5------------------------|
|---3---3----3---3----3---3----3---3----------------------|
|-6--------6--------6--------6----------------------------|
|---------------------------------------------------------|

riff I (acoustic)
|---------------------------------------------------------|
|---------------------------------------------------------|
|-----5--------5--------5--------5------------------------|
|---3---3----3---3----3---3----3---3----------------------|
|-3--------3--------3--------3----------------------------|
|---------------------------------------------------------|

|---------------------------------------------------------|
|---------------------------------------------------------|
|-----6--------6--------6--------6------------------------|
|---3---3----3---3----3---3----3---3----------------------|
|-3--------3--------3--------3----------------------------|
|---------------------------------------------------------|

|---------------------------------------------------------|
|---------------------------------------------------------|
|-----5--------5--------5--------5------------------------|
|---3---3----3---3----3---3----3---3----------------------|
|-3--------3--------3--------3----------------------------|
|---------------------------------------------------------|

|---------------------------------------------------------|
|----------------------------------4~---------------------|
|-----6--------6--------6--------6------------------------|
|---3---3----3---3----3---3----3--------------------------|
|-3--------3--------3--------3----------------------------|
|---------------------------------------------------------|

repeat riff I 3x

riff J (5:20) (chords under riff I)
|---------------------------------------------------------|
|---------------------------------------------------------|
|-3/5-55--5----3/5-55--5----3/5-55--5----3/5-55--5--------|
|-1/3-33--3----1/3-33--3----1/3-33--3----1/3-33--3--------|
|---------------------------------------------------------|
|---------------------------------------------------------|
                                                (4x)
riff K (6:12)
|---------------------------------------------------------|
|---------------------------------------------------------|
|---------------------------------------------------------|
|---------------------------------------------------------|
|-3--333333-33---3--333333-33---3--333333-3-3333----------|
|-1--111111-11---1--111111-11---1--111111-1-1111-3-4p3----|
     ...... ..      ...... ..      ......   ....
                                                (3x)
riff J
|---------------------------------------------------------|
|---------------------------------------------------------|
|-3/5-55--5----3/5-55--5----3/5-55--5----3/5-55--5--------|
|-1/3-33--3----1/3-33--3----1/3-33--3----1/3-33--3--------|
|---------------------------------------------------------|
|---------------------------------------------------------|
                                                (2x)
repeat riff A 8x (7:18)
repeat riff B 1x
repeat riff A 8x + G 8x (till end of song)

  Visit MetalTabs.com for more metal tablature

bottom separator

Contact Us | Privacy Policy | Disclaimer | Legal Notice
Copyright © 2001-2014 MetalTabs.com. All Rights Reserved.