top separator

Home

Forum

What's New

Submit a Tab

FAQ

Links

Contact Us

Link to Us

MuSpy.com

MetalTabs.com logo

Bands

0-9

A

B

C

D

E

F

G

H

I

J

K

L

M

N

O

P

Q

R

S

T

U

V

W

X

Y

Z

Search

What

Where
 

Hecate Enthroned - "The pagan swords of legend" Guitar Tab

Plain Text Version
More Hecate Enthroned Tabs

Hits: 3754
Rated: 4.33 out of 5 (3 votes)
Updated: 2004-02-29 14:33:35

 

Important note
This tab is available online because we obtained explicit permission from Hecate Enthroned or their label.


#----------------------------------PLEASE NOTE---------------------------------#
#This file is the author's own work and represents their interpretation of the #
#song. You may only use this file for private study, scholarship, or research. #
#Unless specified otherwise, this is NOT an official tab from the band members.#
#------------------------------------------------------------------------------#

  Visit MetalTabs.com for more metal tablature
  
Band: Hecate enthroned
Album: Dark requiems and unsilent massacre
Song: The pagan swords of leyend


Transcribed by: Abdul Al-Hazred

e-mail: el_arabe_loco@hotmail.com



 ( )     tremolo
|-3-|    tresillo





Tunning: D


Riff I     Acoustic with some delay, just one Guitar     once
|---------------------|-----------------|-----------------|-----------------|
|---------------------|-----------------|-----------------|-----------------|
|---------------------|-----------------|-----------------|-----------------|
|----9----9----9----9-|---9---9---9---9-|---9---9---9---9-|---9---9---9---9-|
|-10---10---10---10---|-9---9---9---9---|-8---8---8---8---|-9---9---9---9---|
|---------------------|-----------------|-----------------|-----------------|






Riff II     with distortion   2 times
|---------|---------|---------|---------|
|---------|---------|---------|---------|
|---------|---------|---------|---------|
|---(9)---|--(11)---|--(12)---|--(11)---|Guitar 1
|--(10)---|---(9)---|---(8)---|---(9)---|
|---------|---------|---------|---------|
|         |         |         |         |
|         |         |         |         |
|---------|---------|---------|---------|
|---------|---------|---------|---------|
|---------|---------|---------|---------|
|---------|---------|---------|---------|Guitar 2
|---(2)---|---(4)---|---(5)---|---(4)---|
|---------|---------|---------|---------|






Riff III   4 times
|------------------------|---------------------------------|----------------|----------------|
|------------------------|---------------------------------|----------------|----------------|
|------------------------|---------------------------------|----------------|----------------|Guitar 1
|--9----9----7--9-10--9--|--7---9--10---9---12--10---9--10-|-6-6--6---6---6-|-5-5--5---5---5-|
|--7----7----5--7--8--7--|--5---7---8---7---10---8---7---8-|-4-4--4---4---4-|-3-3--3---3---3-|
|------------------------|---------------------------------|----------------|----------------|
|                        |                                 |                |                |
|                        |                                 |                |                |
|------------------------|---------------------------------|----------------|----------------|
|------------------------|---------------------------------|----------------|----------------|
|------------------------|---------------------------------|----------------|----------------|Guitar 2
|--(9)----(7)(9)-(10)(9)-|-(7)(9)-(10)(9)-(12)(10)-(5)(10)-|-(6)-----(6)----|-(5)-----(5)----|
|--(7)----(5)(7)--(8)(7)-|-(5)(7)--(8)(7)-(10)(8)--(7)(8)--|-(4)-----(4)----|-(3)-----(3)----|
|------------------------|---------------------------------|----------------|----------------|






Riff IV a)    Acoustic with some delay, just one Guitar   3 times
|-----------------|
|-----------------|
|-----------------|
|-----------------|
|-3---3---3---4---|
|---5---5---5---5-|


Riff IV b)     with distortion   1 time
|-----------------------|
|-----------------------|
|-----------------------|
|-2-2-2--2-2-2--1--1--1-|Guitar 1
|-3-3-3--3-3-3--2--2--2-|
|-----------------------|
| |-3-|  |-3-|          |
|                       |
|-----------------------|
|-----------------------|
|-----------------------|
|-----------------------|Guitar 2
|-3-3-3--3-3-3--2--2--2-|
|-3-3-3--3-3-3--2--2--2-|
  |-3-|  |-3-|






Riff V   2 times
|------------|------------|------------|------------|
|------------|------------|------------|------------|
|------------|------------|------------|------------|
|-(10)--(11)-|-(10)--(11)-|-(10)--(11)-|-2--2--1--1-|Guitar 1
|------------|------------|------------|-3--3--2--2-|
|------------|------------|------------|------------|
|            |            |            |            |
|            |            |            |            |
|------------|------------|------------|------------|
|------------|------------|------------|------------|
|------------|------------|------------|------------|
|------------|------------|------------|------------|Guitar 2
|-(3)----(4)-|-(3)----(4)-|-(3)----(4)-|-3--3--2--2-|
|-(5)----(5)-|-(5)----(5)-|-(5)----(5)-|-3--3--2--2-|






Riff II   2 times




Riff III   4 times




Riff VI a)  2 times
|--------------|---------------|
|--------------|---------------|
|--------------|---3-3----3-3--|Guitar 1
|--4-----4-----|-3--3---3--3---|
|--2-----2-----|-1------1------|
|--------------|---------------|
|              |               |
|              |               |
|--------------|---------------|
|--------------|---------------|
|--------------|---------------|Guitar 2
|--------------|---------------|
|--9-----9-----|-8------8------|
|--7-----7-----|-6------6------|


Riff VI b)   2 times   both guitars
|-----------|-----------|
|-----------|-----------|
|-----------|-----------|
|--4----4---|--3----2---|
|--2----2---|--1----0---|
|-----------|-----------|



Riff VI c)   1 time
|----------------------------|-----------------------|
|----------------------------|-----------------------|
|----------------------------|-----------------------|Guitar 1
|----------------------------|-----------------------|
|----(10)(9)(7)-(4)(5)(4)(2)-|-(1)------(0)(7)(8)(7)-|
|-(7)------------------------|-----------------------|
|                            |                       |
|                            |                       |
|----------------------------|-----------------------|
|----------------------------|-----------------------|
|----------------------------|-----------------------|Guitar 2
|--4-------------4-----------|--3--------2-----------|
|--2-------------2-----------|--1--------0-----------|
|----------------------------|-----------------------|


Riff VI d)  1 time
|----------------------------|---------------------------------|
|----------------------------|---------------------------------|
|----------------------------|---------------------------------|Guitar 1
|----------------------------|-----------5-4-2--2-2-2--1--1--1-|
|----(10)(9)(7)-(4)(5)(4)(2)-|-(1)--------------3-3-3--2--2--2-|
|-(7)------------------------|---------------------------------|
|                            |           |-3-|  |-3-|          |
|                            |                                 |
|----------------------------|---------------------------------|
|----------------------------|---------------------------------|
|----------------------------|---------------------------------|Guitar 2
|--4-------------4-----------|--3------------------------------|
|--2-------------2-----------|--1--------3-3-3--3-3-3--2--2--2-|
|----------------------------|-----------3-3-3--3-3-3--2--2--2-|
                                         |-3-|  |-3-|






Riff V   2 times




Riff II   2 times



Riff III   4 times




Riff VII   both Guitars   1 time
|----------|----------|
|----------|----------|
|----------|----------|
|----------|----------|
|--7-------|-7----3---|
|--5-------|-5----1---|






Riff VIII   4 times
|---------------|---------------|---------------|---------------|
|---------------|---------------|---------------|---------------|
|---------------|---------------|---------------|---------------|Guitar 1
|------(15)(14)-|------(12)(10)-|-----------(8)-|-(10)-(12)(10)-|
|-(12)----------|-(10)----------|--(8)----------|---------------|
|---------------|---------------|---------------|---------------|
|               |               |               |               |
|               |               |               |               |
|---------------|---------------|---------------|---------------|
|---------------|---------------|---------------|---------------|
|---------------|---------------|---------------|---------------|Guitar 2
|---------------|---------------|---------------|---------------|
|--(7)----------|--(5)----------|--(3)----------|--(8)----------|
|--(5)----------|--(3)----------|--(1)----------|---------------|






Riff IX   2 times both Guitars
|-----|-----|----------|
|-----|-----|----------|
|-----|-----|----------|
|--7--|--5--|--3-------|
|--7--|--5--|--3-------|
|--5--|--3--|--1-------|



maŠa ssalaamah...

  Visit MetalTabs.com for more metal tablature

bottom separator

Contact Us | Privacy Policy | Disclaimer | Legal Notice
Copyright © 2001-2014 MetalTabs.com. All Rights Reserved.