top separator

Home

Forum

What's New

Submit a Tab

FAQ

Links

Contact Us

Link to Us

MetalTabs.com logo

Bands

0-9

A

B

C

D

E

F

G

H

I

J

K

L

M

N

O

P

Q

R

S

T

U

V

W

X

Y

Z

Search

What

Where
 

Darkthrone - "The Claws Of Time" Guitar Tab

Plain Text Version
More Darkthrone Tabs

Hits: 5451
Rated: 5.00 out of 5 (1 vote)
Updated: 2004-02-29 14:30:08

 

Important note
This tab is available online because we obtained explicit permission from Darkthrone or their label.


#----------------------------------PLEASE NOTE---------------------------------#
#This file is the author's own work and represents their interpretation of the #
#song. You may only use this file for private study, scholarship, or research. #
#Unless specified otherwise, this is NOT an official tab from the band members.#
#------------------------------------------------------------------------------#

  Visit MetalTabs.com for more metal tablature
  
Band:  (Darkthrone)
Album: (Ravishing Grimness)
Song:  (The Claws Of Time)

Copyright (c)  (Sebastian) (2004)
Version 1.0 - (040115)

Transcribed By: (Sebastian)
Email:          (bobbo158@hotmail.com)


.  - palm mute           /  - slide up to
\  - slide down to       ~  - vibrato
h  - hammer on           b  - Bend
p  - pull off            Suffixes for bend
t  - tap                 f  - full bend    h - half bend
ph - pinched harmonic    q  - quarter bend t - tap bend
*  - see comment         ^  - Hold bend    r release bend
x  - Stuccatto           ~  - vibrato bend
,  - slight palm mute    () - ghost note, sustained note
"  - tremolo note        <> - Trill


Tuning:(EADGBE)


|Gtr. 1
----------------------------------------------------------------|
----------------------------------------------------------------|
----------------------------------------------------------------|
-5-5-5-5-5-5-5-5-4-4-4-4-4-4-4-2-2-2-4-4-4-4-4-4-5-5-5----------|
----------------------------------------------------------------|
----------------------------------------------------------------|
|                                               End Riff A
|Gtr. 2
----------------------------------------------------------------|
----------------------------------------------------------------|
--------------------------4----4----4-----4----4----4----4----4-|
--5--5--5--5--5--5--5--5--4----4----4-----4----4----4----4----4-|
--5--5--5--5--5--5--5--5--2----2----2-----2----2----2----2----2-|
--3--3--3--3--3--3--3--3----------------------------------------|
						End Rhy. Fig.

|[0:58]
|-----------------------------------------------------------------------------
|-----------------------------------------------------------------------------
|--------------------------------9-9-9-9-9-9-9-9-9-9-9-9-7-9-9-9-9-9-9-9-9-9--
|--------------------------------9-9-9-9-9-9-9-9-9-9-9-9-7-9-9-9-9-9-9-9-9-9--
|-6-6-6-6-6-6-6-6-6-6-6-6-6-6-6--7-7-7-7-7-7-7-7-7-7-7-7-5-7-7-7-7-7-7-7-7-7--
|-7-7-7-7-7-7-7-7-7-7-7-7-7-7-7-----------------------------------------------


-----------------------------------------------------------------------|
-----------------------------------------------------------------------|
--9-9-9-9-9------------------------------------------------------------|
--9-9-9-9-9------------------------------------------------------------|
--7-7-7-7-7--7-7-7-7-7-7-7-7-7-7-7-7-7-77-6-6-6-6-6-6-6-6-6-6-6-6-6-6--|
-------------8-8-8-8-8-8-8-8-8-8-8-8-8-88-7-7-7-7-7-7-7-7-7-7-7-7-7-7--|

|[01:06]		Rhy. Fig. 2
|-----------------------------------------------------------------------------
|-----------------------------------------------------------------------------
|----------------------------------7--9-9-9-9-9-9-9-9-9-9-9-9-9-9-------------
|----------------------------------7--9-9-9-9-9-9-9-9-9-9-9-9-9-9-------------
|--7-7-7-7-7-7-7-7-7-7-7-7-7-7-7-7-5--7-7-7-7-7-7-7-7-7-7-7-7-7-7--7-7-7-7-7--
|--0-0-0-0-0-0-0-0-0-0-0-0-0-0-0-0---------------------------------8-8-8-8-8--


--------------------------------------------------|
--------------------------------------------------|
--------------------------------------------------|
--------------------------------------------------|
--7-7-7-7-7-7-7-7-7-6-6-6-6-6-6-6-6-6-6--6-6-6-6--|
--8-8-8-8-8-8-8-8-8-7-7-7-7-7-7-7-7-7-7--7-7-7-7--|


|[02:22]		Rhy. Fig. 3
|-----------------------------------------------------------------------------
|-----------------------------------------------------------------------------
|----------------------------7---------6--6-6-6-6-----------------------------
|----------------------------5---------4--4-4-4-4-----------------------------
|--2--2-2--2-2--2--2-2--2-2-----2-2-2--------------2--2-2--2-2--2--2-2--2-2---
|--0--0-0--0-0--0--0-0--0-0-----0-0-0--------------0--0-0--0-0--0--0-0--0-0---

-------------------------------------------------------------------------------
-------------------------------------------------------------------------------
---4--4--4--4--5------------------------------------------------5---------6--6-
---4--4--4--4--5--5--5--5--5--5--5------------------------------7---------4--4-
---2--2--2--2--3--5--5--5--5--5--5---2---2-2--2-2--2--2-2--2-2-----2-2-2-------
------------------3--3--3--3--3--3---0---0-0--0-0--0--0-0--0-0-----0-0-0-------

				1st end of rhy. Fig. 3	2nd end of r-f-3
-----------------------------------|------------------------|------------------
------------------------------------------------------------|------------------
--6-6-6------------------------------4-44-4-4-5-4-4-4-4-4-4-|-4-4-4-4-5-5-#####
--4-4-4------------------------------4-44-4-4-5-2-2-2-2-2-2-|-4-4-4-4-5-3-#####
---------2--2-2--2-2--2--2-2--2-2----2-22-2-2-3-------------|-2-2-2-2-3--------
---------0--0-0--0-0--0--0-0--0-0--|------------------------|------------------
                                         e n d  o f  r h y .  f i g .  3

|[03:05]		Rhy. Fig. 4
|-----------------------------------------------------------------------------
|-----------------------------------------------------------------------------
|-----------------------------------------2--2--2-----------------------------
|-----------------------------------------0--0--0-----------------------------
|--2--2-2--2-2--2--2-2--2-2--2--2-2--2-2-----------2--2-2--2-2--2--2-2--2-2---
|--0--0-0--0-0--0--0-0--0-0--0--0-0--0-0-----------0--0-0--0-0--0--0-0--0-0---


-------------------------------------------------------------------------------
-------------------------------------------------------------------------------
---5-5--5-5-6--5-5--5-5-6-------------------------------------------2--2--2----
---3-3--3-3-4--3-3--3-3-4-------------------------------------------0--0--0----
----------------------------2--2-2--2-2---2--2-2--2-2--2--2-2--2-2-------------
----------------------------0--0-0--0-0---0--0-0--0-0--0--0-0--0-0-------------


------------------------------------------|
------------------------------------------|
-----------------------------7--6--5--4---|
-----------------------------5--4--3--2---|
---2--2-2--2-2--2--2-2--2-2---------------|
---0--0-0--0-0--0--0-0--0-0---------------|
                      End of rhy. fig. 4

|[04:31]		Rhy. Fig. 5
|-----------------------------------------------------------------------------
|-----------------------------------------------------------------------------
|--4--4--4--4--4--4--4--4--4--4--4--4--2--2--2--2--2--2--2--2--2--2--2--2-----
|--4--4--4--4--4--4--4--4--4--4--4--4--2--2--2--2--2--2--2--2--2--2--2--2--5--
|--2--2--2--2--2--2--2--2--2--2--2--2--0--0--0--0--0--0--0--0--0--0--0--0--5--
|--------------------------------------------------------------------------3--


-----------------------------------------------------------------------|
-----------------------------------------------------------------------|
-----------------------------------------------------------------------|
--5--5--5--5--5--5--5--5--5--5--5--2--2---2--2--2--2--4--4--4--4--4--4-|
--5--5--5--5--5--5--5--5--5--5--5--2--2---2--2--2--2--4--4--4--4--4--4-|
--3--3--3--3--3--3--3--3--3--3--3--0--0---0--0--0--0--2--2--2--2--2--2-|


any corrections. bobbo158@hotmail.com

  Visit MetalTabs.com for more metal tablature

bottom separator

Contact Us | Privacy Policy | Disclaimer | Legal Notice
Copyright © 2001-2014 MetalTabs.com. All Rights Reserved.