top separator

Home

Forum

What's New

Submit a Tab

FAQ

Links

Contact Us

Link to Us

MetalTabs.com logo

Bands

0-9

A

B

C

D

E

F

G

H

I

J

K

L

M

N

O

P

Q

R

S

T

U

V

W

X

Y

Z

Search

What

Where
 

Asphyx - "Valleys In Oblivion" Guitar Tab

Plain Text Version
More Asphyx Tabs

Hits: 2829
Updated: 2004-02-29 14:29:05

 

By:

BestialWarrior

sendpm.gif

email.gif

Important note
This tab is available online because we obtained explicit permission from Asphyx or their label.


#----------------------------------PLEASE NOTE---------------------------------#
#This file is the author's own work and represents their interpretation of the #
#song. You may only use this file for private study, scholarship, or research. #
#Unless specified otherwise, this is NOT an official tab from the band members.#
#------------------------------------------------------------------------------#

  Visit MetalTabs.com for more metal tablature
  
Band:  (Asphyx)
Album: (Asphyx)
Song:  (Valleys In Oblivion)

Copyright (c)  (Century Media) (1994)
Version 1.0 - (Jan/Feb 94)

Transcribed By: (BestialWarrior)
Email:          (Bestialson2003@yahoo.com)


.  - palm mute           /  - slide up to
\  - slide down to       ~  - vibrato
h  - hammer on           b  - Bend
p  - pull off            Suffixes for bend
t  - tap                 f  - full bend    h - half bend
ph - pinched harmonic    q  - quarter bend t - tap bend
*  - see comment         ^  - Hold bend    r release bend
x  - Stuccatto           ~  - vibrato bend
,  - slight palm mute    () - ghost note, sustained note
"  - tremolo note        <> - Trill

Tunning: Tune Down One Full Step=D.

Riff#1.Slow..                Fill.
|---------------------|-----|-----||
|---------------------|-----|-----||
|---------------------|-----|-----||
|-----4-5-4-----------|3----|-----||
|2----2-3-2--5----5-6-|1----|-----||
|0-----------3----3-4-|1----|1----||
                             ~
Riff#2.  Begin Slow.     Fast Tremolo picking.    Fill.
|-----------------------|-----------------|-----------------||
|-----------------------|-----------------|-----------------||
|-----------------------|-----------------|-----------------||
|-----------------------|1111111122222222-|2222222211111111-||
|2------2------2------2-|-----------------|-----------------||
|0----0-0----0-0----0-0-|-----------------|-----------------||
      .      .      .    """"""""""""""""  """"""""""""""""

Riff#3.  Up and down stroking where palm muted..
|-------------------------------------||
|-------------------------------------||
|-------------------------------------||    Repeat Riffs#2,3.
|-------------------------------------||
|2-----------3-4-3--2----------3-5-3--||
|0--0-0-0-0--1-2-1--0--0-0-0-0-1-3-1--||
    . . . .            . . . .

Riff#4. Slightly Fast/Up and down stroke picking...
                            Fill.
|-----------------|----|----------------||
|-----------------|----|----------------||
|-----------------|----|----------------||
|-----------------|----|----------------||
|-----------------|--7-|--7-8-7-5-8-5---||
|0000000000000000-|5---|5-------------0-||
 ................                     .

Riff#5. Heavy..                  Fill.
|------------------------|------|------||
|------------------------|------|------||
|------------------------|------|------||
|------------------------|------|------||
|2-2-2-2-2-2-2-2-2-2-2-2-|------|------||
|0-0-0-0-0-0-0-0-0-0-0-0-|2/3-1-|2\1-3-||
 . . . . . . . . . . . .

Riff#6.
|--------------------------------||
|--------------------------------||
|--------------------------------||
|--------------------------------||
|2---7-6---3-4-5-2---7-6---3-4-3-||
|0-0-5-4-0-1-2-3-0-0-5-4-0-1-2-1-||
   .     .         .     .

Repeat Riffs#5,2,3,3 again but slightly faster..
5;repeat/fade out with church bells in background...

END

  Visit MetalTabs.com for more metal tablature

bottom separator

Contact Us | Privacy Policy | Disclaimer | Legal Notice
Copyright © 2001-2014 MetalTabs.com. All Rights Reserved.