top separator

Home

Forum

What's New

Submit a Tab

FAQ

Links

Contact Us

Link to Us

MuSpy.com

MetalTabs.com logo

Bands

0-9

A

B

C

D

E

F

G

H

I

J

K

L

M

N

O

P

Q

R

S

T

U

V

W

X

Y

Z

Search

What

Where
 

Asphyx - "Back Into Eternity" Guitar Tab

Plain Text Version
More Asphyx Tabs

Hits: 3454
Updated: 2004-02-29 14:27:33

 

By:

BestialWarrior

sendpm.gif

email.gif

Important note
This tab is available online because we obtained explicit permission from Asphyx or their label.


#----------------------------------PLEASE NOTE---------------------------------#
#This file is the author's own work and represents their interpretation of the #
#song. You may only use this file for private study, scholarship, or research. #
#Unless specified otherwise, this is NOT an official tab from the band members.#
#------------------------------------------------------------------------------#

  Visit MetalTabs.com for more metal tablature
  
Band:  (Asphyx)
Album: (Asphyx)
Song:  (Back Into Eternity)

Copyright (c)  (Century Media) (1994)
Version 1.0

Transcribed By: (BestialWarrior)
Email:          (Bestialson2003@yahoo.com)


.  - palm mute           /  - slide up to
\  - slide down to       ~  - vibrato
h  - hammer on           b  - Bend
p  - pull off            Suffixes for bend
t  - tap                 f  - full bend    h - half bend
ph - pinched harmonic    q  - quarter bend t - tap bend
*  - see comment         ^  - Hold bend    r release bend
x  - Stuccatto           ~  - vibrato bend
,  - slight palm mute    () - ghost note, sustained note
"  - tremolo note        <> - Trill
G  - Gallop.
Tunning :Tune Down One Full Step= D.

Riff#1. Slow.  With Bells in background,etc.
                                             Fill 1.
|-----------------------|----------------|----------------||
|-----------------------|----------------|----------------||
|-----------------------|----------------|----------------||
|---------3-------------|------3-4------3|------3-4-5-4---||
|4--------1------4------|------1-2------1|------1-2-3-2---||
|2------0--------2------|0-2-0-----------|0-2-0---------0-||
        .                . . .            . . .         .

Riff#2.Fast..
|----------------------------------------------------||
|----------------------------------------------------||
|----------------------------------------------------||
|----------------------------------------------------||
|------------111111111111------------111222333222222-||
|222222222222------------222222222222----------------||

 Transition A.     Riff#3. Slow/Heavy.
|----------||   |-----------------------|-----|----||
|----------||   |-----------------------|-----|----||
|----------||   |-----------------------|-----|----||
|----------||   |--------------------4\3|-----|----||
|----------||   |2-------3-2-6-5-----2\1|-3/5-|-3--||
|2-3-4-2-1-||   |0----0--1-0-4-3--0-----|-1/3-|-1--||
 . . . . .
Riff#4. Heavy.. All Palm muted.
|-----------------------------------||
|-----------------------------------||
|-----------------------------------||  Repeat Riff#2.,Transition A.
|-----------------------------------||
|--3332---2221---1---3332---222-222-||
|0------0------0---0------0-000-000-||
    G      G          G      G   G

Riff#5.
|------------|------------|-------------||
|------------|------------|-------------||
|------------|------------|-------------||
|-----2------|-----2-----3|-------------||
|2------3-2-3|2------3-1--|5----66----3-||
|0----------1|0-----------|3----44----1-||
                                .
Riff#6. All Slight Palm Muting../Fast..
|----------------------------------||
|----------------------------------||
|----------------------------------||
|-------------4--------------------||
|-------------2-5--------------5-6-||
|000000000000---3-000000000000-3-4-||

Riff#7.
|----------------------||
|----------------------||
|----------------------||  Repeat Riff#5.
|-------4-5------------||
|2------2-3-4-3----5-6-||
|0--0-0-----2-1----3-4-||
    . .
Riff#8. Fast..Up and down stroke picking on palm mute..
|--------------------------------------------------------------||
|--------------------------------------------------------------||
|--------------------------------------------------------------||
|-------------------9----------9--------------------9----------||
|-------------7---------10---10---------------7---------10---8-||
|000000000000---000---0----0-----000000000000---000---0----0---||
 ............   ...   .    .     ............   ...   .    .
                 G                               G
Transition B.
|-------------------------||
|-------------------------||
|-------------------------||
|-------------------------||
|2------------5-4-----5-4-||
|0--------0-0-3-2-0-0-3-2-||
          . . . . . . . .
Riff#9. All palm muted/Heavy..
|----------------------------------------------------||
|----------------------------------------------------||
|----------------------------------------------------||
|2-2-2-2-2-2-2-2-2-2-2-2-2-2-2-2-2-2-2-2-5-4-----5-4-||
|2-2-2-2-2-2-2-2-2-2-2-2-2-2-2-2-2-2-2-2-5-4-----5-4-||
|0-0-0-0-0-0-0-0-0-0-0-0-0-0-0-0-0-0-0-0-3-2-0-0-3-2-||
 . . . . . . . . . . . . . . . . . . . . . . . . . .

Repeat Riffs: 3, 2, Transition A.

End Chord.
|---||
|---||
|---||
|---||
|-2-||
|-0-||

END.

  Visit MetalTabs.com for more metal tablature

bottom separator

Contact Us | Privacy Policy | Disclaimer | Legal Notice
Copyright © 2001-2014 MetalTabs.com. All Rights Reserved.