top separator

Home

Forum

What's New

Submit a Tab

FAQ

Links

Contact Us

Link to Us

MuSpy.com

MetalTabs.com logo

Bands

0-9

A

B

C

D

E

F

G

H

I

J

K

L

M

N

O

P

Q

R

S

T

U

V

W

X

Y

Z

Search

What

Where
 

Cephalic Carnage - "Scolopendra Cingulata" Guitar Tab

Plain Text Version
More Cephalic Carnage Tabs

Hits: 3507
Updated: 2004-02-29 14:20:10

 

By:

shredder

sendpm.gif

email.gif

Important note
This tab is available online because we obtained explicit permission from Cephalic Carnage or their label.


#----------------------------------PLEASE NOTE---------------------------------#
#This file is the author's own work and represents their interpretation of the #
#song. You may only use this file for private study, scholarship, or research. #
#Unless specified otherwise, this is NOT an official tab from the band members.#
#------------------------------------------------------------------------------#

  Visit MetalTabs.com for more metal tablature
  
Band: 	Cephalic Carnage
Album:	Lucid Interval
Song:	Scolopendra Cingulata

Copyright  Relapse Records 2002
Version 1.0 - January 12, 2004

Transcribed By:	Joe Holly
E-mail:		rivers_of_gore666@yahoo.com

.  - palm mute           /  - slide up to
\  - slide down to       ~  - vibrato
h  - hammer on           b  - Bend
p  - pull off            Suffixes for bend
t  - tap                 f  - full bend    h - half bend
ph - pinched harmonic    q  - quarter bend t - tap bend
*  - see comment         ^  - Hold bend    r release bend
x  - Stuccatto           ~  - vibrato bend
,  - slight palm mute    () - ghost note, sustained note
"  - tremolo note        <> - Trill

Tuning: B E A D G B

Intro
|----------------------|
|----------------------|
|----------------------|
|--------7---7---7--7--|
|-2-2-2--x---x---x--x--|
|-0-0-0--5---5---5--5--|
  . . .

Riff 1
|------------------------------|
|------------------------------|
|------------10---10---10--10--|
|-3-----------8----8----8---8--|
|-x---2-2-2---7----7----7---7--|
|-1---0-0-0--------------------|
      . . .

|--------------------------|
|--------------------------|
|------------8---8---8--8--|
|-3----------7---7---7--7--|
|-x---2-2-2--6---6---6--6--|
|-1---0-0-0----------------|
      . . .

|------------------------------|
|------------------------------|
|------------10---10---10--10--|
|-3-----------x----x----x---x--|
|-x---2-2-2---8----8----8---8--|
|-1---0-0-0--------------------|
      . . .

|--------------------------|
|--------------------------|
|------------8---8---8--8--|
|-3----------7---7---7--7--|
|-x---2-2-2--6---6---6--6--|
|-1---0-0-0----------------|
      . . .

Riff 2
|------------------------------|
|------------------------------|
|------------10---10---10--10--|
|-3-----------9----9----9---9--|
|-x---2-2-2---8----8----8---8--|
|-1---0-0-0--------------------|
      . . .

Riff 3
|-----------------0----------------------------0--------|
|-----------6-7-6-5~-----------------6-7-6-5-6-5~-------|
|-------------------------------------------------------|
|-3------------------------3----------------------------|
|-x---22222----------------x---22222--------------------|
|-1---00000----------------1---00000--------------------|
      .....                    .....

Riff 4
|-----------------0-----------------------------|
|-----------6-7-6-5~----------------------------|
|-----------------------------------------------|
|-3-----------------------3---------------------|
|-x---22222---------------x---22222-4--6--3-3-4-|
|-1---00000---------------1---00000-2--4--1-1-2-|
      .....                   ..... .  .  . . .

  Visit MetalTabs.com for more metal tablature

bottom separator

Contact Us | Privacy Policy | Disclaimer | Legal Notice
Copyright © 2001-2014 MetalTabs.com. All Rights Reserved.