top separator

Home

Forum

What's New

Submit a Tab

FAQ

Links

Contact Us

Link to Us

MuSpy.com

MetalTabs.com logo

Bands

0-9

A

B

C

D

E

F

G

H

I

J

K

L

M

N

O

P

Q

R

S

T

U

V

W

X

Y

Z

Search

What

Where
 

Illdisposed - "Weeping Souls Of Autumn Desires" Guitar Tab

Plain Text Version
More Illdisposed Tabs

Hits: 2895
Rated: 5.00 out of 5 (1 vote)
Updated: 2004-02-29 14:18:46

 

By:

Daniil

sendpm.gif

email.gif

Important note
This tab is available online because we obtained explicit permission from Illdisposed or their label.


#----------------------------------PLEASE NOTE---------------------------------#
#This file is the author's own work and represents their interpretation of the #
#song. You may only use this file for private study, scholarship, or research. #
#Unless specified otherwise, this is NOT an official tab from the band members.#
#------------------------------------------------------------------------------#

  Visit MetalTabs.com for more metal tablature
  
ILLDISPOSED-Weeping Souls Of Autumn Desires
Four Depressive Seasons-1993
Transcribed by Daniil Laletin
e-mail: dlaletin@mail.ru
version 1.0 December 2003

All corrections are welcome.

 " - tremolo
 / - slide down
 \ - slide up
 . - palm mute
 ~ - long sound
 x - slightly rest

Riff 1
|--------------------------------|
|--------------------------------|
|--------------------------3-----|
|-4----5----2x---4-5--2x-----5---|gtr 1
|-4----5----2x-2------2x-2-------|
|-2----3----0x-0------0x-0-------|
|
|--------------------------------|
|--------------------------------|
|--------------------------------|
|-4----5----2x--------2x---8-----|gtr 2
|-4----5----2x-2-9-10-2x-2---10\-|
|-2----3----0x-0------0x-0-------|



Riff 2 - originally it's played by three guitars
         but i tabbed it for two
|--------------------------|
|--------------------------|
|-0--4--0--242--0--4--2--5-|
|-2--5--2--454--2--5--3--7-|gtr 1
|--------------------------|
|--------------------------|
|
|--------------------------|
|--------------------------|
|--------------------------|
|-2-----2-------2-----3----|gtr 2
|-2-----2-------2-----3----|
|-0-----0-------0-----1----|

play this little solo under riff 2 (probably with mistakes)
|------------------------------------------------|
|------------------------------------------------|
|--------------2-----------------5-9~~~~~~~~~~~~-|
|----2-5-4p2-2---4----2-5---7~-------------------|
|------------------------------------------------|
|-00----------------0----------------------------|
  ..


Riff 3a
|---------------------------------------|
|---------------------------------------|
|---------------------------------------|
|-2----2----2----454-2----2----3------3-|both
|-2---------2--------2---------3--------|
|-0-00---00-0-00-----0-00---00-1-1111---|
    ..   ..   ..       ..   ..   ....

Riff 3b
|---------------------------------------|
|---------------------------------------|
|---------------------------------------|
|-2----2----2----454-2----2----3------3-|gtr 1
|-2---------2--------2---------3--------|
|-0-00---00-0-00-----0-00---00-1-1111---|
|   ..   ..   ..       ..   ..   ....
|---------------------------------------|
|---------------------------------------|
|---------------------------------------|
|-2----5----2----797-2----5----3------3-|gtr 2
|-2---------2--------2---------3--------|
|-0-00---00-0-00-----0-00---00-1-1111---|
    ..   ..   ..       ..   ..   ....


Riff 4
|----------------|
|----------------|
|----------------|
|-2--3-2-----3~~-|both
|-2--------------|
|-0------0-0-----|
         . .

Riff 5
|-------------------------------------------------------|
|-------------------------------------------------------|
|-----------4--------------------------4----------------|
|-2-5-4-----2--2-5-4---------2-5-4-----2--2-5-4---------|both
|-2-3-2--------2-3-2---------2-3-2--------2-3-2---------|
|-0-----0-0----0-----0143231-0-----000----0-----0143231-|
        . .          .......       ...          .......


Riff 6a
|---------------------------------------------|
|---------------------------------------------|
|---------------------------------------------|
|-2-----232---------211-2-----233---------455-|both
|---------------------------------------------|
|---0-0-----0-0-0-0-------0-0-----0-0-0-0-----|


Riff 6b
|---------------------------------------------|
|---------------------------------------------|
|---------------------------------------------|
|-2-----232---------211-2-----233---------455-|gtr 1
|---------------------------------------------|
|---0-0-----0-0-0-0-------0-0-----0-0-0-0-----|
|
|---------------------------------------------|
|---------------------------------------------|
|---------------------------------------------|
|-2-------------------------------------------|gtr 2
|-2-------------------------------------------|
|-0-------------------------------------------|

|---------------------------------------------|
|---------------------------------------------|
|---------------------------------------------|
|-2-----232---------211-2-----233---------455-|gtr 1
|---------------------------------------------|
|---0-0-----0-0-0-0-------0-0-----0-0-0-0-----|
|
|---------------------------------------------|
|---------------------------------------------|
|---------------------------------------------|
|-2-----------------211-2-----------------455-|gtr 2
|-2-----------------211-2---------------------|
|-0---------------------0---------0-0-0-0-----|


Riff 7
|----------------------------------|
|----------------------------------|
|----------------------------------|
|----------------------------------|both
|---------5555------------3333-----|
|-00000000----333355555555----3333-|


Riff 8                                Fill 1
|---------------------------------|  |---------------|
|---------------------------------|  |---------------|
|---------------------------------|  |---------------|
|---------------------------------|  |---------------|both
|-----------------3-2-1-0-4-3-1-0-|  |-2-2-------2-2-|
|-0-1-3-1-5-3-1-0-----------------|  |-0-0-------0-0-|
  . . . . . . . . . . . . . . . .


Riff 9
|-----------------------------------------------|
|-----------------------------------------------|
|-----------------------------------------------|
|-----------------------------------------2-4-5-|both
|---0-3-0-3---3-6-3-6-2-1-4-1-4-0--1-3-4--------|
|-0---------4-----------------------------------|
  . .   .   . .   .   . .   .   .  . . .  . . .

|-------------------------------------------------|
|-------------------------------------------------|
|---------------------------------------------2h3-|
|---------------------------------------2-4-5-----|both
|---0-3-0-3---3-6-3-6-2-1-4-1-4-0-1-3-4-----------|
|-0---------4-------------------------------------|
  . .   .   . .   .   . .   .


Riff 10
|----------------------------|
|----------------------------|
|----------------------------|
|-2------5------3----7--9--2-|
|-2------5------3----7--9--2-|
|-0------3------1----5--7--0-|
(there is a cool solo under this riff
 that i can't tab, maybe someone could help)


Riff 11
|----------------------------------|
|----------------------------------|
|----------------------------------|
|----------------------------------|both
|----------------------------------|
|-00000000333333331111111155557777-|


Riff 12a
|---------------------------|
|---------------------------|
|---------------------------|
|-5-3-2-0-5-2---5-3-2-0-2-2-|both
|-----------2-------------2-|
|-----------0-------------0-|
  . . . . .     . . . . .


Riff 12b                         Ending of this riff
|----------------------------|  |--------------------|
|----------------------------|  |--------------------|
|----------------------------|  |--------------------|
|-5-3-2-0-5-2---5-3-2-0-2-2--|  |-5-3-2-0-5~--3~--2~-|gtr 1
|-----------2-------------2--|  |--------------------|
|-----------0-------------0--|  |--------------------|
| . . . . .     . . . . .         . . . .
|----------------------------|  |--------------------|
|----------------------------|  |--------------------|
|----------------------------|  |--------------------|
|-9-7-5-4-9-5~--9-7-5-4-5-9~-|  |-9-7-5-4-9~--7~--5~-|gtr 2
|----------------------------|  |--------------------|
|----------------------------|  |--------------------|
  . . . . .     . . . . .         . . . .


Riff 13                               Riff 14
|---------------------------------|  |---------------------------------|
|---------------------------------|  |---------------------------------|
|---------------------------------|  |---------------------------------|
|---4-5---4-5---4---3-4---3-4---3-|  |---------------------------------|gtr 1
|-2-----2-----2---1-----1-----1---|  |---4-5---4-5---4---5-6---5-6---5-|
|---------------------------------|  |-2-----2-----2---3-----3-----3---|
|
|---------------------------------|  |---------------------------------|
|---------------------------------|  |---------------------------------|
|-4---------------3---------------|  |---------------------------------|
|-4---------------3---------------|  |-4---------------5---------------|gtr 2
|-2---------------1---------------|  |-4---------------5---------------|
|---------------------------------|  |-2---------------3---------------|


Ending riff
|--------------------|
|--------------------|
|--------------------|
|--------------------|gtr 1
|---4-5---4-5--5-4-2-|
|-2-----2------------|
|
|--------------------|
|--------------------|
|--------------------|
|-4------------5-4-2-|gtr 2
|-4------------5-4-2-|
|-2------------3-2-0-|

  Visit MetalTabs.com for more metal tablature

bottom separator

Contact Us | Privacy Policy | Disclaimer | Legal Notice
Copyright © 2001-2014 MetalTabs.com. All Rights Reserved.