top separator

Home

Forum

What's New

Submit a Tab

FAQ

Links

Contact Us

Link to Us

MetalTabs.com logo

Bands

0-9

A

B

C

D

E

F

G

H

I

J

K

L

M

N

O

P

Q

R

S

T

U

V

W

X

Y

Z

Search

What

Where
 

Corpsefucking Art - "Splatter Deluxe" Guitar Tab

Plain Text Version
More Corpsefucking Art Tabs

Hits: 4413
Rated: 5.00 out of 5 (7 votes)
Updated: 2004-02-29 14:15:39

 

By:

CarnivorousWind

sendpm.gif

email.gif

Important note
This tab is available online because we obtained explicit permission from Corpsefucking Art or their label.


#----------------------------------PLEASE NOTE---------------------------------#
#This file is the author's own work and represents their interpretation of the #
#song. You may only use this file for private study, scholarship, or research. #
#Unless specified otherwise, this is NOT an official tab from the band members.#
#------------------------------------------------------------------------------#

  Visit MetalTabs.com for more metal tablature
  
Band:  (CorpseFucking Art)
Album: (Splatter Deluxe)
Song:  (Splatter Deluxe)
Transcribed By: (Charles Vosvick)
Email:          (CE_JediSith@msn.com)
.  - palm mute           /  - slide up to
\  - slide down to       ~  - vibrato
h  - hammer on           b  - Bend
p  - pull off            Suffixes for bend
t  - tap                 f  - full bend    h - half bend
ph - pinched harmonic    q  - quarter bend t - tap bend
*  - see comment         ^  - Hold bend    r release bend
x  - Stuccatto           ~  - vibrato bend
,  - slight palm mute    () - ghost note, sustained note
"  - tremolo note        <> - Trill

Tunning F# B E A C# F#

Riff A Repeat 1x

|-------------------------------------------------------------------|
|-------------------------------------------------------------------|
|-------------------------------------------------------------------|
|-------------------------------------------------------------------|
|--5--4--3--4--5--4--3--4--7--5--5--7--5--5--7--5-------------------|
|--3--2--1--2--3--2--1--2--5--3--3--5--3--3--5--3-------------------|

|-------------------------------------------------------------------|
|-------------------------------------------------------------------|
|-------------------------------------------------------------------|
|-------------------------------------------------------------------|
|--5--4--3--4--5--4--3--4--5--7--7--5--7--7--5--7-------------------|
|--3--2--1--2--3--2--1--2--3--5--5--3--5--5--3--5-------------------|

Riff B Repeat 1x

|-------------------------------------------------------------------|
|-------------------------------------------------------------------|
|-------------------------------------------------------------------|
|--5--4--3--4--5--4--3--4--7--5--5--7--5--5--7--5-------------------|
|--3--2--1--2--3--2--1--2--5--3--3--5--3--3--5--3-------------------|
|-------------------------------------------------------------------|

|-------------------------------------------------------------------|
|-------------------------------------------------------------------|
|-------------------------------------------------------------------|
|--5--4--3--4--5--4--3--4--5--7--7--5--7--7--5--7-------------------|
|--3--2--1--2--3--2--1--2--3--5--5--3--5--5--3--5-------------------|
|-------------------------------------------------------------------|

Riff A Repeat 1x

|-------------------------------------------------------------------|
|-------------------------------------------------------------------|
|-------------------------------------------------------------------|
|-------------------------------------------------------------------|
|--5--4--3--4--5--4--3--4--7--5--5--7--5--5--7--5-------------------|
|--3--2--1--2--3--2--1--2--5--3--3--5--3--3--5--3-------------------|

|-------------------------------------------------------------------|
|-------------------------------------------------------------------|
|-------------------------------------------------------------------|
|-------------------------------------------------------------------|
|--5--4--3--4--5--4--3--4--5--7--7--5--7--7--5--7-------------------|
|--3--2--1--2--3--2--1--2--3--5--5--3--5--5--3--5-------------------|

Riff C Repeat 2x

|-------------------------------------------------------------------|
|-------------------------------------------------------------------|
|-------------------------------------------------------------------|
|-------------------------------------------------------------------|
|--5--4--4--5--4--4--5-4-3-5-6-5-3-4-5-4----------------------------|
|--3--2--2--3--2--2--3-2-1-3-4-3-1-2-3-2----------------------------|

Riff D

|-------------------------------------------------------------------|
|-------------------------------------------------------------------|
|-------------------------------------------------------------------|
|-----------------------------------------3\------------------------|
|--5--4--4--5--4--4--5-4-3-5-6-5-3-4-5-4--1\------------------------|
|--3--2--2--3--2--2--3-2-1-3-4-3-1-2-3-2----------------------------|

Riff C Repeat 2x

|-------------------------------------------------------------------|
|-------------------------------------------------------------------|
|-------------------------------------------------------------------|
|-------------------------------------------------------------------|
|--5--4--4--5--4--4--5-4-3-5-6-5-3-4-5-4----------------------------|
|--3--2--2--3--2--2--3-2-1-3-4-3-1-2-3-2----------------------------|

Riff D

|-------------------------------------------------------------------|
|-------------------------------------------------------------------|
|-------------------------------------------------------------------|
|-----------------------------------------3\------------------------|
|--5--4--4--5--4--4--5-4-3-5-6-5-3-4-5-4--1\------------------------|
|--3--2--2--3--2--2--3-2-1-3-4-3-1-2-3-2----------------------------|


Riff E Repeat  6x

|-------------------------------------------------------------------|
|-------------------------------------------------------------------|
|-------------------------------------------------------------------|
|-------------------------------------------------------------------|
|-5-6-4-5-5-6-5-6-5-6-4-5-6-7--8------------------------------------|
|-3-4-2-3-3-4-3-4-3-4-2-3-4-5--6------------------------------------|

Riff F Repeat 3x

|-------------------------------------------------------------------|
|-------------------------------------------------------------------|
|-------------------------------------------------------------------|
|-5-6-4-5-5-6-5-6-5-6-4-5-6-7--8------------------------------------|
|-3-4-2-3-3-4-3-4-3-4-2-3-4-5--6------------------------------------|
|-------------------------------------------------------------------|

Riff E Repeat  3x

|-------------------------------------------------------------------|
|-------------------------------------------------------------------|
|-------------------------------------------------------------------|
|-------------------------------------------------------------------|
|-5-6-4-5-5-6-5-6-5-6-4-5-6-7--8------------------------------------|
|-3-4-2-3-3-4-3-4-3-4-2-3-4-5--6------------------------------------|

Riff B Repeat 1x

|-------------------------------------------------------------------|
|-------------------------------------------------------------------|
|-------------------------------------------------------------------|
|--5--4--3--4--5--4--3--4--7--5--5--7--5--5--7--5-------------------|
|--3--2--1--2--3--2--1--2--5--3--3--5--3--3--5--3-------------------|
|-------------------------------------------------------------------|

|-------------------------------------------------------------------|
|-------------------------------------------------------------------|
|-------------------------------------------------------------------|
|--5--4--3--4--5--4--3--4--5--7--7--5--7--7--5--7-------------------|
|--3--2--1--2--3--2--1--2--3--5--5--3--5--5--3--5-------------------|
|-------------------------------------------------------------------|

Riff E Repeat 3x

|-------------------------------------------------------------------|
|-------------------------------------------------------------------|
|-------------------------------------------------------------------|
|-------------------------------------------------------------------|
|-5-6-4-5-5-6-5-6-5-6-4-5-6-7--8------------------------------------|
|-3-4-2-3-3-4-3-4-3-4-2-3-4-5--6------------------------------------|


Riff F Repeat 3x

|-------------------------------------------------------------------|
|-------------------------------------------------------------------|
|-------------------------------------------------------------------|
|-5-6-4-5-5-6-5-6-5-6-4-5-6-7--8------------------------------------|
|-3-4-2-3-3-4-3-4-3-4-2-3-4-5--6------------------------------------|
|-------------------------------------------------------------------|


Riff E Repeat 3x

|-------------------------------------------------------------------|
|-------------------------------------------------------------------|
|-------------------------------------------------------------------|
|-------------------------------------------------------------------|
|-5-6-4-5-5-6-5-6-5-6-4-5-6-7--8------------------------------------|
|-3-4-2-3-3-4-3-4-3-4-2-3-4-5--6------------------------------------|
End

  Visit MetalTabs.com for more metal tablature

bottom separator

Contact Us | Privacy Policy | Disclaimer | Legal Notice
Copyright © 2001-2014 MetalTabs.com. All Rights Reserved.