top separator

Home

Forum

What's New

Submit a Tab

FAQ

Links

Contact Us

Link to Us

MuSpy.com

MetalTabs.com logo

Bands

0-9

A

B

C

D

E

F

G

H

I

J

K

L

M

N

O

P

Q

R

S

T

U

V

W

X

Y

Z

Search

What

Where
 

Cephalic Carnage - "Hybrid" Guitar Tab

Plain Text Version
More Cephalic Carnage Tabs

Hits: 4755
Rated: 3.00 out of 5 (1 vote)
Updated: 2004-02-29 13:48:12

 

By:

shredder

sendpm.gif

email.gif

Important note
This tab is available online because we obtained explicit permission from Cephalic Carnage or their label.


#----------------------------------PLEASE NOTE---------------------------------#
#This file is the author's own work and represents their interpretation of the #
#song. You may only use this file for private study, scholarship, or research. #
#Unless specified otherwise, this is NOT an official tab from the band members.#
#------------------------------------------------------------------------------#

  Visit MetalTabs.com for more metal tablature
  
Band: 	Cephalic Carnage
Album:	Exploiting Dysfunction
Song:	Hybrid

Copyright  Relapse Records 2000
Version 1.0 - January 12, 2004

Transcribed By:	Joe Holly
E-mail:		rivers_of_gore666@yahoo.com

.  - palm mute           /  - slide up to
\  - slide down to       ~  - vibrato
h  - hammer on           b  - Bend
p  - pull off            Suffixes for bend
t  - tap                 f  - full bend    h - half bend
ph - pinched harmonic    q  - quarter bend t - tap bend
*  - see comment         ^  - Hold bend    r release bend
x  - Stuccatto           ~  - vibrato bend
,  - slight palm mute    () - ghost note, sustained note
"  - tremolo note        <> - Trill

Tuning: B E A D G B

intro
|-------------------------------------|
|-------------------------------------|
|-------------------------------------|
|-------------------------5-----4-----|
|-5--4----4--3----5--4----3-5-4-2-4-3-|
|-3--2----2--1----3--2------3-2---2-1-|
  .  .    .  .    .  .

|---------------------------------|
|---------------------------------|
|---------------------------------|
|-------------------------5-----4-|
|-5--4----4--3----5--4----3-5-4-2-|
|-3--2----2--1----3--2------3-2---|
  .  .    .  .    .  .

Riff 2A
|-------------------------------------------------|
|-------------------------------------------------|
|-------------------------------------------------|
|-------4-4---------5-4---------5-4---4/5---------|
|-4-3---3-2---4-3---3-2---4-3---3-2---2/3---5\4---|
|-2-1-0-----0-2-1-0-----0-2-1-0-----0-----0-3\2-0-|
  . .   . .   . .   . .   . .   . . .     .     .

Riff 2B
|---------------------------------------------------------------|
|---------------------------------------------------------------|
|------------------------------------------------------5"----7"-|
|-------5/6\5-------4/5\4-------5/6\5---4/5---------------------|
|-4-3---3/4\3-4-3---2/3\2-4-3---3/4\3---2/3---5\4---0"----------|
|-2-1-0-------2-1-0-------2-1-0-------0-----0-3\2-0-------2"----|
  . . .       . . .       . . .       .     .     .

Riff 3A
|-------9-----------------------------------12-|
|-----------8-------------------------------13-|
|---------------10---11------12---11---12---12-|
|----------------------------------------------|
|----------------------------------------------|
|----------------------------------------------|

Riff 3B
|---------------------------------------------------------|
|---------------------------------------------------------|
|-----9---9---10---9---8-------10---9h11--11p10--10h11-11-|
|-8------------------------8------------------------------|
|---------------------------------------------------------|
|---------------------------------------------------------|

|-----------------------------------------------------|
|-----------------------------------------------------|
|-----8---8---9---8---9-------9---9h10--10p9--9p8--8--|
|-7-----------------------7---------------------------|
|-----------------------------------------------------|
|-----------------------------------------------------|

Riff 3A

Riff 4
|-------------------------------|
|-------------------------------|
|-------------------------------|
|-5------4----------------------|
|-3------2----------------------|
|----0-0----0-0-2-1-2-3-2-1-0-1-|
     . .    . . . . . . . . . .

Riff 5
|---------------------------------------------------|
|---------------------------------------------------|
|---------------------------------------------------|
|-7"-9"-8"-7"-6"----------8"-10"-9"-8"-7"-----------|
|----------------9"-8"-7"-----------------10"-9"-8"-|
|---------------------------------------------------|

|------------------------------------------------------------------|
|------------------------------------------------------------------|
|------------------------------------------------------------------|
|-7"-8"-7"----------8"-9"-10"-9"-8"-----------7"-8"-7"-------------|
|----------9"-8"-7"-----------------10"-9"-8"----------9"-8"-7"-6"-|
|------------------------------------------------------------------|

Riff 6
|-----------------------------------|
|-----------------------------------|
|---------4-----------------4----3--|
|---------3-----------4-----3----2--|
|-4---3---2---6---3---3---5-2--4-1--|
|-2---1-------4---1---2---3----2----|
  .   .       .   .       .    .

|-----------------------------------------|
|-----------------------------------------|
|---------4-------------------------------|
|---------3---------------4/5\4-------9\8-|
|-4---3---2---6---3---4---2/3\2-4/5\4-7\6-|
|-2---1-------4---1---2---------2/3\2-----|
  .   .       .   .   .

Riff 7
|-----------------------------------------------|
|-----------------------------------------------|
|-----------------------------------------------|
|-----8-------3---4-----8-----------------------|
|-4/5-6---3/4-1---2-----6---3/4-2h3p2h3-----3/6-|
|-2/3---0-1/2---0---2/3---0-1/2---------2h3-----|
        .       .         .

|-------------------------|
|-------------------------|
|-------------------------|
|-------2"-3"-2"----2"-3"-|
|----2"----------1"-------|
|-0"----------------------|
  .  .  .  .  .  .  .  .

|-------------------------|
|-------------------------|
|-------------------------|
|-------3"-4"-3"----3"-4"-|
|----3"----------2"-------|
|-1"----------------------|
  .  .  .  .  .  .  .  .

|-------------------------|
|-------------------------|
|-------------------------|
|-------4"-5"-4"----4"-5"-|
|----4"----------3"-------|
|-2"----------------------|
  .  .  .  .  .  .  .  .

|-------------------------|
|-------------------------|
|-------------------------|
|-------5"-6"-5"----5"-6"-|
|----5"----------4"-------|
|-3"----------------------|
  .  .  .  .  .  .  .  .

|-------------------------|
|-------------------------|
|-------6"-7"-6"----6"-7"-|
|----6"----------5"-------|
|-4"----------------------|
|-------------------------|

|-------------------------|
|-------------------------|
|-------7"-8"-7"----7"-8"-|
|----7"----------6"-------|
|-5"----------------------|
|-------------------------|

|-------------------------|
|-------------------------|
|-------8"-9"-8"----8"-9"-|
|----8"----------7"-------|
|-6"----------------------|
|-------------------------|

|------------------------------|
|------------------------------|
|-------9"-10"-9"----11"-3ph-b-|
|----9"-----------6"-----------|
|-7"---------------------------|
|------------------------------|

Riff 8A
|---------------------------|
|---------------------------|
|-----2/5---5h6p5h6-2h3p2h3-|
|---------6-----------------|
|-2-2-----------------------|
|-0-0-----------------------|
  . .

Riff 8B
|-----------------------------------|
|-----------------------------------|
|-6h7p6h7-3h4p3h4-7h8p7h8-9h10p9h10-|
|-----------------------------------|
|-----------------------------------|
|-----------------------------------|

Riff 8C
|----------------------------------------------|
|----------------------------------------------|
|----------------------------------------------|
|-----4------------------4----3/4-3/4----------|
|-2-2-2--2-2-4--2-3--2-2-2--2-1/2-1/2--3/4-3/4-|
|-0-0----0-0-2--0-1--0-0----0----------1/2-1/2-|
  . .    . .    .    . .    .

Solo
|-------------15p14p12----15p14p12-------------------------------|
|----------------------15----------15----------------------------|
|-------------------------------------15--b~-----13--14--14--10--|
|-14-b--r~-------------------------------------------------------|
|----------------------------------------------------------------|
|----------------------------------------------------------------|

|-------------------------------------------------------------------------------|
|-------------------------------------------------------------------------------|
|-----------------------------------------------14-14h15p14h15-16p15-13h14------|
|-16-h17-16-h17-16-h17~~-16h17-19p17-15h16-17~~----------------------------16~~-|
|-------------------------------------------------------------------------------|
|-------------------------------------------------------------------------------|

|-13p12p10----14p13p11----15p14p12----17p16p14----|
|----------13----------14----------15----------17-|
|-------------------------------------------------|
|-------------------------------------------------|
|-------------------------------------------------|
|-------------------------------------------------|

|-t15p12p11p9-t20p12p11p9-t16p13p12p10-t21p13p12p10-t17p14p13p11-t22p14p13p11-|
|-----------------------------------------------------------------------------|
|-----------------------------------------------------------------------------|
|-----------------------------------------------------------------------------|
|-----------------------------------------------------------------------------|
|-----------------------------------------------------------------------------|

|-t18p15p14p12-t23p15p14p12-t19p16p15p13----------------------------------|
|----------------------------------------19-b~~--------------------16-b~~-|
|------------------------------------------------18h19-21-b--17h19--------|
|-------------------------------------------------------------------------|
|-------------------------------------------------------------------------|
|-------------------------------------------------------------------------|

|-14p13p11----14p13p11----12-----------12----16---------15/18-17h18------16h18h19\-|
|----------14----------14-15-b~~-14h15----15----17---------------------------------|
|--------------------------------------------------12~~-------------11~~-----------|
|----------------------------------------------------------------------------------|
|----------------------------------------------------------------------------------|
|----------------------------------------------------------------------------------|

Under Solo
|-------------------------------------------------------|
|-------------------------------------------------------|
|-------------------------------------------------------|
|-------------------------------------------------------|
|-2---------------4--6--5---------------4---------------|
|-0---------------2--4--3---------------2---------------|

Riff 2A

Riff 9
|-------------------------------------|
|-------------------------------------|
|-------------------------------------|
|-------------------------5-----4-----|
|-5--4----4--3----5--4----3-5-4-2-4-3-|
|-3--2----2--1----3--2------3-2---2-1-|
  .  .    .  .    .  .

Riff 2A
Riff 3A

Riff 10
|------------------------|
|------------------------|
|-----6--11----13--------|
|------------------12----|
|-10---------------------|
|------------------------|

Riff 4

  Visit MetalTabs.com for more metal tablature

bottom separator

Contact Us | Privacy Policy | Disclaimer | Legal Notice
Copyright © 2001-2014 MetalTabs.com. All Rights Reserved.