top separator

Home

Forum

What's New

Submit a Tab

FAQ

Links

Contact Us

Link to Us

MuSpy.com

MetalTabs.com logo

Bands

0-9

A

B

C

D

E

F

G

H

I

J

K

L

M

N

O

P

Q

R

S

T

U

V

W

X

Y

Z

Search

What

Where
 

Napalm Death - "Greed Killing" Guitar Tab

Plain Text Version
More Napalm Death Tabs

Hits: 8854
Rated: 3.31 out of 5 (13 votes)
Updated: 2002-01-15 16:32:58

 

Important note
This tab is available online because we obtained explicit permission from Napalm Death or their label.


#----------------------------------PLEASE NOTE---------------------------------#
#This file is the author's own work and represents their interpretation of the #
#song. You may only use this file for private study, scholarship, or research. #
#Unless specified otherwise, this is NOT an official tab from the band members.#
#------------------------------------------------------------------------------#

  Visit MetalTabs.com for more metal tablature
  
Greed Killing

Napalm Death
from: Diatribes

Transcribed by: Nick Beato (entity@cfl.rr.com)

tune down to "D" (DGCFAd)

intro/bridge (pick to rhythm of song)

|------------------|
|------------------|
|-9-------7--------|
|------------------|
|-7-------5--------|
|------------------|

verse
|-----------------------------------------|
|-----------------------------------------|
|---------------------7-7-x-7---7-7-x-7---|
|---------------------7-7-x-7---7-7-x-7---|
|-3-2---2---3-2---2-----------------------|
|-1-0-x-0---1-0-x-0-----------------------|

prechorus part 1
|------------------------|
|------------------------|
|------------------------|
|------------------------|
|-2-2-----5-5-----8\-----|
|-0-0-----3-3-----6\-----|

prechorus part 2

|---------------------------|
|---------------------------|
|---------------------------|
|-------3-----------6---3---|
|-2---x-1---x-5---x-4---1---|
|-0---x-----x-3---x---------|

chorus

|-------------------------------------------------|
|-------------------------------------------------|
|-------------------------------------------------|
|-------3---3-------6---6-9-----x-9---9-------9---|
|-2-2-x-1---1-5-5-x-4---4-7-8---x-7---7-8---x-7---|
|-0-0-x-------3-3-x---------6-----------6---x-----|

end of song pay this

|------------------|
|------------------|
|-9-9--------------|
|------------------|
|-7-7--------------|
|------------------|

email me: entity@cfl.rr.com

This file was downloaded from...
Musical Manifestations
(http://home.cfl.rr.com/xezlorir/mm)
if the link is not found, email: Xezlorir@hotmail.com


enjoy!

  Visit MetalTabs.com for more metal tablature

bottom separator

Contact Us | Privacy Policy | Disclaimer | Legal Notice
Copyright © 2001-2014 MetalTabs.com. All Rights Reserved.