top separator

Home

Forum

What's New

Submit a Tab

FAQ

Links

Contact Us

Link to Us

MetalTabs.com logo

Bands

0-9

A

B

C

D

E

F

G

H

I

J

K

L

M

N

O

P

Q

R

S

T

U

V

W

X

Y

Z

Search

What

Where
 

Cephalic Carnage - "Eradicate Authority" Guitar Tab

Plain Text Version
More Cephalic Carnage Tabs

Hits: 3438
Updated: 2004-02-29 13:43:05

 

By:

shredder

sendpm.gif

email.gif

Important note
This tab is available online because we obtained explicit permission from Cephalic Carnage or their label.


#----------------------------------PLEASE NOTE---------------------------------#
#This file is the author's own work and represents their interpretation of the #
#song. You may only use this file for private study, scholarship, or research. #
#Unless specified otherwise, this is NOT an official tab from the band members.#
#------------------------------------------------------------------------------#

  Visit MetalTabs.com for more metal tablature
  
Band: 	Cephalic Carnage
Album:	Exploiting Dysfunction
Song:	Eradicate Authority

Copyright  Relapse Records 2000
Version 1.0 - January 12, 2004

Transcribed By:	Joe Holly
E-mail:		rivers_of_gore666@yahoo.com

.  - palm mute           /  - slide up to
\  - slide down to       ~  - vibrato
h  - hammer on           b  - Bend
p  - pull off            Suffixes for bend
t  - tap                 f  - full bend    h - half bend
ph - pinched harmonic    q  - quarter bend t - tap bend
*  - see comment         ^  - Hold bend    r release bend
x  - Stuccatto           ~  - vibrato bend
,  - slight palm mute    () - ghost note, sustained note
"  - tremolo note        <> - Trill

Tuning: B E A D G B

Riff 1
|-----------------------------------------|
|-----------------------------------------|
|-----------------------------------------|
|-2---------3---------2-------------------|
|------2---------3---------2----2----2----|
|-------------------------------0----0----|
                                .    .

|------------------------------------------------|
|------------------------------------------------|
|------------------------------------------------|
|-2---------3---------2--------------------------|
|------2---------3---------2----3---3-3-3-3-3-3--|
|-------------------------------1---1-1-1-1-1-1--|
                                .   . . . . . .

Riff 2
|-----------------------------------------|
|-----------------------------------------|
|-----------------------------------------|
|-2---------3---------2-------------------|
|------2---------3---------2----2----2----|
|-------------------------------0----0----|
                                .    .

|-------------------------------------------|
|-------------------------------------------|
|-------------------------------------------|
|-2---------3---------2---------------------|
|------2---------3---------2----3--3--3--3--|
|-------------------------------1--1--1--1--|
                                .  .  .  .

Riff 3
|----------------------------------|
|----------------------------------|
|----------------------------------|
|----------------------5-----4-----|
|-2--3-4-2--3-4-2--3-4-3-5-4-2-4-3-|
|-0--1-2-0--1-2-0--1-2---3-2---2-1-|
  .  . . .  . . .  . .

Riff 4A
|----------------------------------------------------|
|----------------------------------------------------|
|-----------------------------------------------9/10-|
|-----------------------------------------------x----|
|-------3p2-----------3p2-----------3p2-----3-4-7/-8-|
|-0h2h4-----4p2-0h2h4-----4p2-0h2h4-----4p2-1-2------|
                                            . .

|----------------------------------------------------|
|----------------------------------------------------|
|-----------------------------------------------10/9-|
|------------------------------------------------x---|
|-------3p2-----------3p2-----------3p2-----3-4--8/7-|
|-0h2h4-----4p2-0h2h4-----4p2-0h2h4-----4p2-1-2------|
                                            . .
Riff 4B
|---------------------------------------|
|---------------------------------------|
|---------------2ph---------------------|
|-----------------------3p2-----2p1-----|
|-5--5--5--4--------3h4-----2h1-----2p1-|
|-3--3--3--2----------------------------|

Riff 5
Guitar 1
|----------------------------------------------------|
|----------------------------------------------------|
|----------------------------------------------------|
|------------------------------------3p2-----2p1-----|
|-2------------------------------3h4-----2h1-----2p1-|
|-0--------------------------------------------------|

Guitar 2
|----------------------------------------------------|
|----------------------------------------------------|
|----------------------------------------------------|
|-----------3p2-----2p1------------------------------|
|-------3h4-----2h1-----2p1-3------------------------|
|---------------------------1------------------------|

Riff 6
|----------------------------------|
|----------------------------------|
|-------------9p8----------9p8-----|
|---------9p8-----10"----------9p8-|
|-7"-------------------------------|
|----------------------------------|

Riff 7A
|---------------------------------|
|---------------------------------|
|---------------------------------|
|---------------------------------|
|-2---------------6---------------|
|-0---------------6---------------|

Riff 7B
Guitar1
|------------------------------|
|------------------------------|
|------------------------------|
|-9ph----------9ph-------------|
|-----2--4--3-------10ph--8ph--|
|-----0--2--1------------------|
      .  .  .

Guitar 2
|-------------------------|
|-------------------------|
|-------------------------|
|-9-----------------------|
|-7------------------4-3--|
|--------------------2-1--|
                     . .

|-------------------------|
|-------------------------|
|-------------------------|
|-8-----------------------|
|-6------------------4-3--|
|--------------------2-1--|
                     . .

Riff 8A
|-----------------------------------------------------------------|
|-----------------------------------------------------------------|
|-----------------------------------------------------------------|
|-4---4---4---4---3---3---3---3---4---4---4---4---3---3---3---3/5-|
|-2---2---2---2---1---1---1---1---2---2---2---2---1---1---1---1/3-|
|---0---0---0---0---0---0---0---0---0---0---0---0---0---0---0-----|
    .   .   .   .   .   .   .   .   .   .   .   .   .   .   .

Riff 8B
|----------------------------------------------------|
|----------------------------------------------------|
|---------4------------3------------4------------3/5-|
|---------x------------x------------x------------x---|
|---------2------------1------------2------------1/3-|
|-000-000------000-000------000-000------000-000-----|
  ... ...      ... ...      ... ...      ... ...

Riff 9
|-----------------------------------------------------------|
|-----------------------------------------------------------|
|-----------------------------------------------------------|
|---------------------4"-3"-4"---------------------5"-4"-5"-|
|---------------3"-2"------------------------2"-3"----------|
|-0"------2"-4"----------------0"------2"-4"----------------|

Riff 6

Riff 10A
|-----------------------|
|-----------------------|
|-----------------------|
|-9----------6----------|
|-7----10----4----8--3--|
|-------8---------6--1--|
                     .

|-----------------------------------|
|-----------------------------------|
|-----------------------------------|
|-9----------6----------------------|
|-7----10----4----8--3--3-3-3-3-3-3-|
|-------8---------6--1--1-1-1-1-1-1-|
                     .  . . . . . .

Riff 10B
|-----------------------|
|-----------------------|
|-----------------------|
|-----------------------|
|-7"---------4"---------|
|-------8"--------6"-1"-|
  .     .    .    .  .

Riff 8A
Riff 8B

Riff 11
Guitar 1
|-------------------------|
|-------------------------|
|-------------------------|
|-----3h4---------3h4-----|
|-2h3-----3h4-2h3-----3h4-|
|-------------------------|

Guitar 2
|-------------------------|
|-------------------------|
|-----8h9---------8h9-----|
|-7h8-----8h9-7h8-----8h9-|
|-------------------------|
|-------------------------|

Riff 12A
|----------------------------|
|----------------------------|
|----------------------------|
|----------------------------|
|-------------------2--2--2--|
|-0-0-0-0-0-0-0-0-0-0--0--0--|
  . . . . . . . . .

|----------------------------|
|----------------------------|
|----------------------------|
|----------------------------|
|-------------------2--2--2--|
|-0-0-0-0-0-0-0-0-0-0--0--0--|
  . . . . . . . . .

|----------------------------|
|----------------------------|
|----------------------------|
|----------------------------|
|-------------------2--2--2--|
|-0-0-0-0-0-0-0-0-0-0--0--0--|
  . . . . . . . . .

|-----------------------------------------------------|
|-------------------------------------5h6p5h6p5h6p5h6-|
|-----------------------------------------------------|
|-------------------------------5--4------------------|
|-------------------------4--3------------------------|
|-0-0-0-0-0-0-0-0-0-4--2------------------------------|
  . . . . . . . . . .  .  .  .  .  .

|----------------------------|
|----------------------------|
|----------------------------|
|----------------------------|
|-------------------2--2--2--|
|-0-0-0-0-0-0-0-0-0-0--0--0--|
  . . . . . . . . .

|----------------------------|
|----------------------------|
|----------------------------|
|----------------------------|
|-------------------2--2--2--|
|-0-0-0-0-0-0-0-0-0-0--0--0--|
  . . . . . . . . .

|----------------------------|
|----------------------------|
|----------------------------|
|----------------------------|
|-------------------2--2--2--|
|-0-0-0-0-0-0-0-0-0-0--0--0--|
  . . . . . . . . .

|-----------------------------------------------------|
|-----------------------------------------------------|
|-------------------------------------6h7p6h7p6h7p6h7-|
|-------------------------------5--4------------------|
|-------------------------4--3------------------------|
|-0-0-0-0-0-0-0-0-0-4--2------------------------------|
  . . . . . . . . . .  .  .  .  .  .

Riff 12B
|---------------------------------|
|---------5h6p5h6-----------------|
|-------------------------6h7p6h7-|
|---------------------------------|
|-2-5-4-2---------2-4-3-2---------|
|-0-3-2-0---------0-2-1-0---------|
  . . . .         . . . .

End with pick scrapes

  Visit MetalTabs.com for more metal tablature

bottom separator

Contact Us | Privacy Policy | Disclaimer | Legal Notice
Copyright © 2001-2014 MetalTabs.com. All Rights Reserved.