top separator

Home

Forum

What's New

Submit a Tab

FAQ

Links

Contact Us

Link to Us

MuSpy.com

MetalTabs.com logo

Bands

0-9

A

B

C

D

E

F

G

H

I

J

K

L

M

N

O

P

Q

R

S

T

U

V

W

X

Y

Z

Search

What

Where
 

Gorefest - "Demon Seed" Guitar Tab

Plain Text Version
More Gorefest Tabs

Hits: 4705
Rated: 5.00 out of 5 (3 votes)
Updated: 2004-02-29 13:31:41

 

Important note
This tab is available online because we obtained explicit permission from Gorefest or their label.


#----------------------------------PLEASE NOTE---------------------------------#
#This file is the author's own work and represents their interpretation of the #
#song. You may only use this file for private study, scholarship, or research. #
#Unless specified otherwise, this is NOT an official tab from the band members.#
#------------------------------------------------------------------------------#

  Visit MetalTabs.com for more metal tablature
  
GOREFEST

" Demon seed "

album: Soul survivor
year: 1996
guitar: Boudewijn Bonebakker & Frank Harthoorn
composition: De Koeijer, Bonebakker & Warby

translated by Michiel Hautus (michiels.gitaarparadijs@hccnet.nl),
January 04, The Netherlands

MORE TABS (Rollins Band, Motorhead, Peter Pan Speedrock, The Gathering,
Dark Angel, Kiss, Paradise Lost):
http://home.hccnet.nl/michiels.gitaarparadijs/


tune down low E to D


explanation signs:

7h8	= hammer-on
7p5	= pull-off
t5	= tab
8b9	= bend 8th fret to 9th
b9	= strike bended tone
7b8r7	= bend 7th fret to 8th and release to old position
7b	= bend the string a little bit
~	= vibration
~~	= much vibration
\	= slide down
/	= slide up
\\\	= slow slide down
x	= percussionstrike
P.M.	= mute strings
>7	= give accent
*	= unclear
R	= rest

RIFF A

     1.2.3. time

E --------------------------------------|
B --------------------------------------|
G --------------------------------------|
D ---2-5-4-2----------------------------|
A -4-2-5-4-2-2->4-R->4-R->4-R->4-R->4-R-|
D -6---------4->6-R->6-R->6-R->6-R->6-R-|

    4. time

E -----------------------------------|
B -----------------------------------|
G -----------------------------------|
D ---2-5-4-2-------------------------|
A -4-2-5-4-2--/5---5---3------3-3-3--|
D -6----------/7---7---5------5-5-5--|

RIFF B VERSE

E ---------------------------------------------|
B ---------------------------------------------|
G ---------------------------------------------|
D ---------------------------------------------|
A ->2--------->2--------->2--------->2-------2-|
D ->4--4-4-4-->4--4-4-4-->4--4-4-4-->4--4-4--4-|
       P.M.-      P.M.-      P.M.-      P.M.

E ---------------------------------------------|
B ---------------------------------------------|
G ---------------------------------------------|
D ---------------------------------------------|
A ->4--------->4--------->4--------->4-R->4->3-|
D ->6--6-6-6-->6--6-6-6-->6--6-6-6-->6-R->6->5-|
       P.M.-      P.M.-      P.M.-

E ---------------------------------------------|
B ---------------------------------------------|
G ---------------------------------------------|
D ---------------------------------------------|
A ->2--------->2--------->2--------->2-------2-|
D ->4--4-4-4-->4--4-4-4-->4--4-4-4-->4--4-4--4-|
       P.M.-      P.M.-      P.M.-      P.M.

E ---------------------------------------------|
B ---------------------------------------------|
G ---------------------------------------------|
D ------------------------------------>2-------|
A ->4--------->4--------->4-------->4->2->4->3-|
D ->6--6-6-6-->6--6-6-6-->6--6-6-6->6---->6->5-|
       P.M.-      P.M.-      P.M.-

E ---------------------------------------------|
B ---------------------------------------------|
G ---------------------------------------------|
D ---------------------------------------------|
A ->2--------->2--------->2--------->2-------2-|
D ->4--4-4-4-->4--4-4-4-->4--4-4-4-->4--4-4--4-|
       P.M.-      P.M.-      P.M.-      P.M.

E ---------------------------------------------|
B ---------------------------------------------|
G --------------------------------->7->7->7->7-|
D ----------------------->2-------->5->5->5->5-|
A ->4--------->4-------4->2--2-2-2->5->5->5->5-|
D ->6--6-6-6-->6--6-6--6-----------------------|
       P.M.-      P.M.       P.M.-

RIFF C CHORUS

note: guitar 2 plays here F#4 chord (42xxxx) with slide before
                                                      |
                                                      |
E ----------------------------------|----------------------------------|
B ----------------------------------|----------------------------------|
G ----------------8------8----------|----------------/2----------------|
D -4--------------6------6----------|--0--------------1----------------|
A -4--------------6------6--------4-|--0-------------/2----------------|
D -4--------------6------6----0-0-6-|--0-------------------------------|
                              P.M.                    |
                                                      |
E ----------------------------------|---------------------------|
B ----------------------------------|---------------------------|
G ----------------8------8----------|----------------/2-------/-|
D -4--------------6------6----------|--0--------------1--no-----|
A -4--------------6------6--------4-|--0-------------/2--drums--|
D -4--------------6------6----0-0-6-|--0------------------------|
                              P.M.

RIFF A2 variation (after chorus)

     1. time

E -------------------------------|
B -------------------------------|
G -------------------------------|
D -------------------------------|
A -2-2-->4-R->4-R->4-R->4-R->4-R-|
D -4-4-->6-R->6-R->6-R->6-R->6-R-|

RIFF C2 CHORUS 1st variation (before solo)

note: guitar 2 plays here F#4 chord (42xxxx) with slide before
                                                      |
                                                      |
E ----------------------------------|----------------------------------|
B ----------------------------------|----------------------------------|
G ----------------8------8----------|----------------/2----------------|
D -4--------------6------6----------|--0--------------1----------------|
A -4--------------6------6--------4-|--0-------------/2----------------|
D -4--------------6------6----0-0-6-|--0-------------------------------|
                              P.M.                    |
                                                      |
E ----------------------------------|----------------------------------|
B ----------------------------------|----------------------------------|
G ----------------8------8----------|----------------/2----------------|
D -4--------------6------6----------|--0--------------1----------------|
A -4--------------6------6--------4-|--0-------------/2----------------|
D -4--------------6------6----0-0-6-|--0-------------------------------|
                              P.M.                    |
                                                      |
E ----------------------------------|----------------------------------|
B ----------------------------------|----------------------------------|
G ----------------8------8----------|---------------->2>2>2>2-R-->2-R--|
D -4--------------6------6----------|--0------------->1>1>1>1-R-->1-R--|
A -4--------------6------6--------4-|--0------------->2>2>2>2-R-->2-R--|
D -4--------------6------6----0-0-6-|--0-------------------------------|
                              P.M.

RIFF D (guitar 1) during solo

E -----------------------------------|-----------------------------------|
B -----------------------------------|-----------------------------------|
G -----------------------------------|-------------------------5---------|
D -7------------>5-->7--R->5-->7-R---|-->7-->5-----------4-----3------/--|
A -7------------>5-->7--R->5-->7-R---|-->7-->5-----------2-----3------/--|
D -7------------>5-->7--R->5-->7-R---|-->7-->5-----------2-----3------/--|

SOLO (guitar 2)(at approach)

E -------------------------------------|---12h14h15-15~~-----14-15p14h15-13~~------|
B ------10~~------10h12/13\12p10-------|--x----------------------------------------|
G -----9---------x--------------9~~----|-x-----------------------------------------|
D ---10---------x----------------------|-------------------------------------------|
A -12----------------------------------|-------------------------------------------|
D -------------------------------------|-------------------------------------------|

E -12-13h15p13p12-13p12----------------------15b17~~----------|
B ------------------------------------------------------------|
G ----------------------14----12-14p12-17p12------------------|
D ------------------------------------------------------------|
A ------------------------------------------------------------|
D ------------------------------------------------------------|

E -15b17-15-13--12-h-13--15--12h13p12h15p13p12-*12-12h13h15p13p12\10-10h12h13p12p10|
B ---------------------------------------------------------------------------------|
G ---------------------------------------------------------------------------------|
D ---------------------------------------------------------------------------------|
A ---------------------------------------------------------------------------------|
D ---------------------------------------------------------------------------------|

                                                  bend a 3/4 note and release
                                                  |
E -\8-8h10h12p10p8\7-7h8h10p8p7*-|----------------------------------------------|
B -------------------------------|-10~~-----8-10--10-b-11b-b11-r-10-p8--10~-----|
G -------------------------------|----------------------------------------------|
D -------------------------------|----------------------------------------------|
A -------------------------------|----------------------------------------------|
D -------------------------------|----------------------------------------------|

E --------------------------------------------------|
B -9h10-9-------------------------------------------|
G --------9h10-9-*6h7-6---------------------------*-|
D ---------------*-------------improvisation------*-|
A --------------------------------------------------|
D --------------------------------------------------|

E ---------------------5-5-----5-5--|--------------------------------------------|
B -5~~-----------------5-5-----5-5--|-5br----------------------------------------|
G ---------------5--b7------b7------|-7br-5h7p5h7p5------------------------------|
D ----------------------------------|---------------t7~~--*-improvisation------*-|
A ----------------------------------|--------------------------------------------|
D ----------------------------------|--------------------------------------------|

E -----------------------------------------------------------|
B ------------------------------------*--/14~~---------------|
G -*over riff A/A2-improvisation------*----------------------|
D -----------------------------------------------------------|
A -----------------------------------------------------------|
D -----------------------------------------------------------|

RIFF C3 CHORUS 2st variation (after solo)

play first two bars a greater times

END OF SONG

E -------------------|
B -------------------|
G -------------------|
D ---2-5-4-2---------|
A -4-2-5-4-2-2-\\\-R-|
D -6---------4-\\\-R-|

note: the first chord is played in the easiest way for the first guitar
by middle finger and little finger

  Visit MetalTabs.com for more metal tablature

bottom separator

Contact Us | Privacy Policy | Disclaimer | Legal Notice
Copyright © 2001-2014 MetalTabs.com. All Rights Reserved.